Tous les tutos

U2 - Song For Someone

Posté le 31 mars 2016 | Pop/Rock | 2 028 vues
Song For Someone - U2
           
            ^     ^     ^
Rythmique : B B B B B B B BH

Accords : 
--------
E: 022100  B: x24442  F#: 244322
G#m: 466444  C#: x46664

Intro + Couplets :
------------------ 

   E                                   F#                G#m
e||---------------------------------------------------------------------------||
B||---------------------------------------------------------------------------||
G||--------------------------------------------------------------------------*|| 
D||---4-----4----------4-----4------------4-----4-----------6-----6----------*||
A||-----7-----7---7------7-----7----7-------4-----4---4-------6-----6---6-----||
E||-0-----0-----0----0-----0-----0------2-----2-----2-----4-----4-----4-------||


Chanson :
---------

Couplet 1 ( arpège )
--------------------
E                      E
   You got a face not spoiled by beauty;
F#                             G#m
    I have some scars from where I’ve been.
E                            E
    You’ve got eyes that can see right through me,
F#                          G#m
    You’re not afraid of anything they’ve seen.
          E       E             F#           G#m
I was told that I would feel nothing the first time
            E          E                   F#               G#m
I don't know how these cuts heal, but in you I found a rhyme.


Pré-refrain ( rythmique ) 
-------------------------
                     E                       B
If there is a light,   you can't always see,
                     F#                    G#m     
And there is a world   we can't always be.
                   E                          B
If there is a dark   that we shouldn't doubt,
                      F#                     G#m
And there is a light,   don't let it go out.

Refrain ( rythmique )
---------------------
                E     B  F#          G#m
And this is a Song     a Song for Someone
            E         B  F#          G#m
This is a Song         a Song for Someone

E

Couplet 2 ( arpège )
--------------------
E                     E
    You let me into a conversation,
F#                      G#m
    A conversation only we could make.
E                          E
    You break and enter my imagination;
F#                            G#m
    Whatever's in there, it's yours to take.
      E                B       F#            G#m
I was told that I would feel nothing the first time
         E            B       F#          G#m
You were slow to heal, but this could be the night.


Pré-refrain( rythmique )
------------------------
                     E                      B
If there is a light,   you can't always see,
                     F#                   G#m     
And there is a world   we can't always be.
                   E                     B
If there is a dark   within and without
                     F#                     G#m
And there is a light,   don't let it go out.


Refrain ( rythmique )
---------------------
                E     B  F#          G#m
And this is a Song     a Song for Someone
            E         B  F#          G#m
This is a Song         a Song for Someone


Guitar Solo:
------------
E - B - G#m - C#

e||--11p9----9-11-------11p9----9-11------9-------|
B||-------12------9-12-------12------9-12---------|
G||*----------------------------------------------|
D||*----------------------------------------------|
A||-----------------------------------------------|
E||-----------------------------------------------|

e|-11p9----9-11-------11p9----9-9---------------||
B|------12------9-12-------12-----12-9----------||
G|---------------------------------------------*||
D|---------------------------------------------*|| 2 Fois
A|----------------------------------------------||
E|----------------------------------------------||


          E       B                F#            G#m 
And I'm a long, long way from your hill of Calvary,
              E   B                F#                       G#m
And I'm a long way from where I was and where I need to be.


End (idem Pré-refrain)
----------------------
                     E                      B
If there is a light,   you can't always see,
                     F#                   G#m     
And there is a world   we can't always be.
                    E                          B
If there is a kiss    I stole from your mouth
                     F#                     
And this is a light,   don't let it go out.


Laisser un commentaire