Tous les tutos

Hugues Aufray - Santiano

Posté le 29 avril 2020 | Variété Française | 488 vues

J’ai fait un fichier guitar pro si vous voulez vous entraîner avec la possibilité de régler le tempo. Télécharger

Santiano - Hugues Auffray

Capo 2

Tempo ~ 115bpm

Rythmique : BB HBH

Intro
-----

e|------7------7---------------------------------------------------7-7----------|
B|----------------10-8--7-------10-----10-8--7----------7-8--8-10-------10------|
G|--9------9--------------9-7-------7-----------9-7-9---------------------------|
D|------------------------------------------------------------------------------|
A|------------------------------------------------------------------------------|
E|------------------------------------------------------------------------------|

e|-10-10--7---------------------------------------------------------------------|
B|-------------7-8-10--10---10-10-10--7-8--10---7----------7-8--8-7-------------|
G|-----------9-------------------------------------9-7---9-----------7---9-9-9--|
D|------------------------------------------------------------------------------|
A|------------------------------------------------------------------------------|
E|------------------------------------------------------------------------------|

Em(4)

Couplet 
------- 
      Em(3)                               D
C'est un fameux trois-mâts fin comme un oiseau
       Em(2)     D(2)
Hissez haut Santiano
Am(2)                  D       Bm
Dix huit noeuds quatre cent tonneaux
        Em       Bm    Em(2)
Je suis fier d'y être  matelot
 
 
Refrain
------- 
      Em(3)                        D
Tiens bon la vague et tiens bon le vent
       Em(2)     D(2)
Hissez haut Santiano
Am(2)                 D       Bm
Si Dieu veut toujours droit devant
      Em         Bm    Em(2)
Nous irons jusqu'à San Francisco
 
 
Couplet 2
--------- 
   Em(3)                                  D(2)
Je pars pour de longs mois en laissant Margot
       Em(2)     D(2)
Hissez haut Santiano
Am(2)              D        Bm
D'y penser j'avais le coeur gros
      Em        Bm      Em(2)
En doublant les feux de Saint-Malo
 
 
Refrain
------- 
      Em(3)                        D(2)
Tiens bon la vague et tiens bon le vent
       Em(2)     D(2)
Hissez haut Santiano
Am(2)                 D       Bm
Si Dieu veut toujours droit devant
      Em         Bm    Em(2)
Nous irons jusqu'à San Francisco
 
 
Instrumental
------------ 
Em(3) D(2)  Em(2)  D(2)  Am(2)  D  Bm  Em  Bm  Em(2)
 
 
Couplet 3
--------- 
   Em(3)                               D(2)
On prétend que là-bas l'argent coule à flots
       Em(2)     D(2)
Hissez haut Santiano
Am(2)                  D       Bm
On trouve l'or au fond des ruisseaux
       Em  Bm     Em(2)
J'en ramènerai plusieurs lingots
 
 
Refrain
------- 
      Em(3)                        D(2)
Tiens bon la vague et tiens bon le vent
       Em(2)     D(2)
Hissez haut Santiano
Am(2)                 D       Bm
Si Dieu veut toujours droit devant
      Em         Bm    Em(2)
Nous irons jusqu'à San Francisco
 
 
Couplet 4
--------- 
   Em(3)                          D(2)
Un jour je reviendrai chargé de cadeaux
       Em(2)     D(2)
Hissez haut Santiano
Am(2)          D       Bm
Au pays j'irai voir Margot
      Em       Bm   Em(2)
A son doigt je passerai l'anneau
 
 
Refrain
------- 
      Em(3)                        D(2)
Tiens bon la vague et tiens bon le vent
       Em(2)     D(2)
Hissez haut Santiano
Am(2)               D       Bm
Sur la mer qui fait le gros dos
      Em         Bm    Em(2)
Nous irons jusqu'à San Francisco

Donations

Vous appreciez mon travail et voulez me soutenir ?
Vous pouvez me soutenir en faisant un don ;)



Laisser un commentaire