Tous les tutos

Asaf Avidan - One day ( Reckoning song )

Posté le | Folk | 8 111 vues
One day - Asaf Avidan

Intro : 

(Mesure 1)
e|-------0-------0-------0-------0-------0-------0-------0-------0-|
B|-----1-------1-------1-------1-------1-------1-------1-------1---|
G|---2-------2-------2-------2-------2-------2-------2-------2-----|
D|---------2-------2-------2-------3-------3-------2-------2-------|
A|-0---------------------------------------------------------------|
E|-----------------------------------------------------------------|

(Mesure 2)                                                                     
e|-------0-------0-------0-------0-------0-------0-------0-------0-|
B|-----1-------1-------1-------1-------1-------1-------1-------1---|
G|---2-------2-------2-------2-------2-------2-------2-------2-----|
D|---------2---------------0---------------0---------------0-------|
A|-3---------------2---------------3---------------2---------------|
E|-----------------------------------------------------------------|

(Mesure 3)
e|-------0-------0-------0-------0-------0-------0-------0-------0-|
B|-----1-------1-------1-------1-------1-------1-------1-------1---|
G|---2-------2-------2-------2-------2-------2-------2-------2-----|
D|---------0-------0-------0-------0-------0-------0---------------|
A|-----------------------------------------------------------------|
E|-1-------------------------------------------------------1-------|

(Mesure 4)
e|-------0-------0-------0-------0-------0-------0-------0-------0-|
B|-----1-------1-------1-------1-------1-------1-------1-------1---|
G|---2-------2-------2-------2-------2-------2-------2-------0-----|
D|---------0-------0-------0---------------0---------------0-------|
A|---------------------------------3---------------2---------------|
E|-0---------------------------------------------------------------|

(Mesure 1)
e|-------0-------0-------0-------0-------0-------0-------0-------0-|
B|-----1-------1-------1-------1-------1-------1-------1-------1---|
G|---2-------2-------2-------2-------2-------2-------2-------2-----|
D|---------2-------2-------2-------3-------3-------2-------2-------|
A|-0---------------------------------------------------------------|
E|-----------------------------------------------------------------|

(Mesure 2)                                                                       
e|-------0-------0-------0-------0-------0-------0-------0-------0-|
B|-----1-------1-------1-------1-------1-------1-------1-------1---|
G|---2-------2-------2-------2-------2-------2-------2-------2-----|
D|---------2---------------0---------------0---------------0-------|
A|-3---------------2---------------3---------------2---------------|
E|-----------------------------------------------------------------|


e|-----0---3p0--------------------------0--------------------------|
B|----1--------1---1-----0h1p0---------1---------------------------|
G|---2-----------2-------------2------2----------------------------|
D|--2----------------------------2---2-----------------------------|
A|-0--------------------------------0------------------------------|
E|-----------------------------------------------------------------|



Couplet ( Verse )

  Am                                C
e|----0---0---0---0---0---0---0---0---0---0---0---0---0---0---0----0--|
B|---1---1---1---1---1---1---1---1---1---1---1---1---1---1---1----1---|
G|--2---2---2---2---2---2---2---2---0---0---0---0---0---0---0----0----|
D|-----2---2---2---2---2---2---2-------2---2---2---2---2---2----2-----|
A|-0-------------------------------3----------------------------------|
E|--------------------------------------------------------------------|
  G7                                F
e|----1---1---1---1---1---1---1---1---1---1---1---1---1---1---1---1---|
B|---0---0---0---0---0---0---0---0---1---1---1---1---1---1---1---1----|
G|--0---0---0---0---0---0---0---0---2---2---2---2---2---2---2---2-----|
D|-----0---0---0---0---0---0---0-------3---3---3---3---3---3---3------|
A|--------------------------------------------------------------------|
E|-3-------------------------------1----------------------------------|

  Am                                C
e|----0---0---0---0---0---0---0---0---0---0---0---0---0---0---0----0--|
B|---1---1---1---1---1---1---1---1---1---1---1---1---1---1---1----1---|
G|--2---2---2---2---2---2---2---2---0---0---0---0---0---0---0----0----|
D|-----2---2---2---2---2---2---2-------2---2---2---2---2---2----2-----|
A|-0-------------------------------3----------------------------------|
E|--------------------------------------------------------------------|

  G7                                F
e|----1---1---1---1---1---1---1---1---1---1---1---1---1---1---1---1---|
B|---0---0---0---0---0---0---0---0---1---1---1---1---1---1---1---1----|
G|--0---0---0---0---0---0---0---0---2---2---2---2---2---2---2---2-----|
D|-----0---0---0---0---0---0---0-------3---3---3---3---3---3---3------|
A|--------------------------------------------------------------------|
E|-3-------------------------------1----------------------------------|


Refrain ( Chorus )

  Am               C              G7               F
e|---0---0---0---0---0---0---0---0---1---1---1---1---1---1---1---1-----|
B|---1---1---1---1---1---1---1---1---0---0---0---0---1---1---1---1-----|
G|---2---2---2---2---0---0---0---0---0---0---0---0---2---2---2---2-----|
D|-----2-------2-------2-------2-------0-------0-------3-------3-------|
A|-0-------0-------3-------3-------------------------------------------|
E|---------------------------------3-------3-------1-------1-----------|


  Am               C              G7               F
e|---0---0---0---0---0---0---0---0---1---1---1---1---1---1---1---1-----|
B|---1---1---1---1---1---1---1---1---0---0---0---0---1---1---1---1-----|
G|---2---2---2---2---0---0---0---0---0---0---0---0---2---2---2---2-----|
D|-----2-------2-------2-------2-------0-------0-------3-------3-------|
A|-0-------0-------3-------3-------------------------------------------|
E|---------------------------------3-------3-------1-------1-----------|



Laisser un commentaire