Tous les tutos

Yodelice - Free

Posté le 14 avril 2016 | Pop/Folk | 1 490 vues

Tablature de la chanson Free de Yodelice

Free - Yodelice

Rythmique : B BH HBH

Intro :
-------

   Gm                           Cm
e|----------------------------------------------------------|
B|-x-x-x-x----------------------4-4-4-4-x-------------------|
G|-x-x-x-x----------------------5-5-5-5-x-------------------|
D|-5-5-5-5-x-x-x-x--------5-5---5-5-5-5-x--x-x-3-3h5-3h5----|
A|-5-5-5-5-x-x-x-x--6-6-x-5-5---3-3-3-3-x-------------------|
E|-3-3-3-3-x-x-x-x--3-3-x-3-3-------------------------------|

   Cm                                Gm
e|--------------------------------------------------------------------|
B|-4-4-4-4-x---4-4-4-x---4-4-4----------------------------------------|
G|-5-5-5-5-x---5-5-5-x---5-5-5-------------------x-x-5-5--3--3--------|
D|-5-5-5-5-x---5-5-5-x---5-5-5--------5-5-5-5-x----------------3h5----|
A|-3-3-3-3-x---3-3-3-x---3-3-3-3h5----5-5-5-5-x-----------------------|
E|------------------------------------3-3-3-3-x-----------------------|

   Gm                           Cm
e|----------------------------------------------------------|
B|-x-x-x-x----------------------4-4-4-4-x-------------------|
G|-x-x-x-x----------------------5-5-5-5-x-------------------|
D|-5-5-5-5-x-x-x-x--------5-5---5-5-5-5-x--x-x-3-3h5-3h5----|
A|-5-5-5-5-x-x-x-x--6-6-x-5-5---3-3-3-3-x-------------------|
E|-3-3-3-3-x-x-x-x--3-3-x-3-3-------------------------------|

   Cm                                Gm
e|--------------------------------------------------------------------|
B|-4-4-4-4-x---4-4-4-x---4-4-4----------------------------------------|
G|-5-5-5-5-x---5-5-5-x---5-5-5----------------------------------------|
D|-5-5-5-5-x---5-5-5-x---5-5-5--------5-5-5-5-x-----------------------|
A|-3-3-3-3-x---3-3-3-x---3-3-3-3h5----5-5-5-5-x-----------------------|
E|------------------------------------3-3-3-3-x-----15s0--------------|


Couplet 1 :
-----------
Gm(2)            Cm(4)
Thank you for pretending that
               Gm(4)
You can see me in the dark
            Cm(4)
As if I was making sense
                          Gm(2)
And what I meant, is what you really heard?

Pré-refrain 1 :
---------------
       D#(1)        Dm(1)
'Cause baby baby baby
     Cm(2)
I'll be what I wanna be
D#(1)           Dm(1)
Crazy as it may be
     Cm(2)
I'll die when I wanna

Refrain :
---------
Gm(2)          Cm(4)
Lies set me free
                  Gm(4)
Lies keep me from my fear
                 Cm(4)
Lies believe in me
              Gm(2)
Lies heavenly shelter

Couplet 2 :
-----------
Gm(2)            Cm(4)                              
Thank you for pretending that
                  Gm(4)
I don't cry and I don't care
                 Cm(4)
That my heart is made of clay
                   Gm(2)
And I will keep sailling away

Pré-refrain 2 :
---------------
       D#(1)        Dm(1)
'Cause baby baby baby
     Cm(2)
I'll be what I wanna be
D#(1)           Dm(1)
Crazy as it may be
     Cm(2)
I'll die when I wanna


Refrain 2 :
-----------
Gm(2)          Cm(4)
Lies set me free
                  Gm(4)
Lies keep me from my fear
                 Cm(4)
Lies believe in me
              Gm(2)
Lies heavenly shelter

Pré-refrain 3 :
---------------
D#(1)             Dm(1)
Thank you for pretending that
  Cm(2)                    
I got some skin around my bones
D#(1)            Dm(1)
Thank you for pretending that
    Cm(2)
I'll never ever ever let you go


Interlude ( Idem que pour le refrain )
--------------------------------------

Refrain 3 :
-----------

Gm(2)          Cm(4)
Lies set me free
                  Gm(4)
Lies keep me from my fear
                 Cm(4)
Lies believe in me
              Gm(2)
Lies heavenly shelter


Laisser un commentaire