Tous les tutos

Chant de Noel - Douce nuit, Sainte nuit

Posté le 4 décembre 2014 | Chants de Noel | 9 093 vues
Douce Nuit, Sainte nuit - Chants de Noël

Accords :
---------

G:320033
D:xx0232
C:x32010

Tablature Mélodie :
-------------------

e||---------------------------s5--5-2---3--3------0---0-3--2-0----0----------|
B||--3---5-3-----3---5-3---------------------3-----------------3-----3--0----|
G||*---------4-----------4---------------------------------------------------|
D||*-------------------------------------------------------------------------|
A||--------------------------------------------------------------------------|
E||--------------------------------------------------------------------------|

e|-0---0-3--2-0----0----------5--5-8--5-------7---3-------------------------||
B|--------------3-----3--0--------------7-8---------3-0-3---1---------------||
G|------------------------------------------------------------2--0---------*||
D|-------------------------------------------------------------------------*||
A|--------------------------------------------------------------------------||
E|--------------------------------------------------------------------------||


Rythmique Globale : 
-------------------
B BHBH*

Chanson :
---------

G(2)        G(2)
Douce nuit, sainte nuit ! 
D(2)              G(2)
Dans les cieux ! L'astre luit. 
C(2)              G(2)
Le mystère annoncé s'accomplit
C(2)                 G(2)
Cet enfant sur la paille endormi,
D(2)                G(2)
C'est l'amour infini !
G(1)        D(1)     G(2)
C'est l'amour infini !

Saint enfant, doux agneau ! 
Qu'il est grand ! Qu'il est beau ! 
Entendez résonner les pipeaux 
Des bergers conduisant leurs troupeaux 
Vers son humble berceau !
Vers son humble berceau !

C'est vers nous qu'il accourt, 
En un don sans retour ! 
De ce monde ignorant de l'amour, 
Où commence aujourd'hui son séjour, 
Qu'il soit Roi pour toujours !
Qu'il soit Roi pour toujours !

Quel accueil pour un Roi ! 
Point d'abri, point de toit ! 
Dans sa crèche il grelotte de froid 
O pécheur, sans attendre la croix, 
Jésus souffre pour toi !
Jésus souffre pour toi !

Paix à  tous ! Gloire au ciel ! 
Gloire au sein maternel, 
Qui pour nous, en ce jour de Noël, 
Enfanta le Sauveur éternel, 
Qu'attendait Israël !
Qu'attendait Israël !


Laisser un commentaire