Tous les tutos

Coeur de Pirate - Comme des Enfants

Posté le 2 août 2009 | Variété Française | 6 845 vues

Description


SITE : http://www.ipsacoustic.fr
COURS DE GRATTE : http://www.coursdegratte.com
FACEBOOK : http://www.facebook.com/pages/Guitare-Acoustique/2[…]7406105437

Salut ;).

Si vous aimez ce que je fais et que vous souhaitez participer en faisant un don, voici l'adresse : http://on.fb.me/1p3AZO8

Voici la tab de l'intro :
e-----------------------------------------
B---------3-------------------------------
G---0---------2-----0------2----0---------
D---0---------1-----2-----------2---------
A-------------2-----------------3---------
E---3---------------0---------------------


e-----------------------------------------
B---0-----------------0-------------------
G---0-----0----2-----------0----------0---
D--------------1-----------2-----2----2---
A--------------2----------------------3---
E---3----------------------0--------------

Pour le reste, y'a juste 4 accords en capo 3 : G(320003), B7 ( x21202), Em(022000) et C( 032010).
Voila :). Si vous avez des soucis... n'hésitez pas ;).

Voici la tab pour "l'arpege" :

e------------------
B--0--------0-----0
G------0-----------
D------------------ Pour le G
A------------------
E--3--------------3


e------------------
B--0--------0-----0
G------2-----------
D------------------ Pour le B7
A---2-------------2
E------------------


e-------------------
B---0--------0-----0
G-------0-----------
D------------------- Pour le Em
A------------------2
E---0---------------



e------------------
B---1--------1----1
G-------0----------
D------------------ Pour le C
A---3-------------3
E------------------

Voici le lien ou vous pourrez la trouver également : http://www.abc-tabs.com/tablature/coeur-de-pirate/[…]rpege.html

https://www.facebook.com/pages/Guitare-Acoustique/[…]7406105437

@++

Donations

Vous appreciez mon travail et voulez me soutenir ?
Vous pouvez me soutenir en faisant un don ;)



Laisser un commentaire