Tous les tutos

Matt Simons - Catch & Release

Posté le | Pop | 2 939 vues
Catch And Release - Matt Simons

Capo 4

Attention ! Erreur sur la vidéo sur le Am. On joue bien la case 2
sur la corde de Sol et non la Case 1 comme c'est indiqué !

Tempo : ~ 85 à la noire

Rythmique Globale : Le coup entre () est percussif

B H(B)B HBB BH

Intro + Couplets + Pont :
-------------------------

     C                                  Am
e||------0-----0-----0-----0----------------0-----0-----0------0-------------|
B||----1-----1-----1-----1------1---1-----1-----1-----1------1------1---1----|
G||*-0-----------0------------0---------2-----------2-------------2----------|
D||*-------2-----------2----------2-----------2-----------2-----------2------|
A||--------------------------------------------------------------------------|
E||--------------------------------------------------------------------------|
   
   Em                                 Em
e|-----0-----0-----0------0---------------0------0-----0-----0--------------||
B|---1-----1-----1------1-----1---1-----1------1-----1-----1------1---1-----||
G|-4-----------4------------4---4-----4------------4------------4----------*||
D|-------2-----------2----------------------2------------2----------2------*||
A|--------------------------------------------------------------------------||
E|--------------------------------------------------------------------------||

Pré-Refrain :
-------------

     C                                  Dm7
e||------0-----0-----0-----0----------------1-----1-----1------1-------------|
B||----1-----1-----1-----1------1---1-----1-----1-----1------1------1---1----|
G||*-0-----------0------------0---------2-----------2-------------2----------|
D||*-------2-----------2----------2-----------0-----------0-----------0------|
A||--------------------------------------------------------------------------|
E||--------------------------------------------------------------------------|

     C                                  F
e||------3-----3-----3-----3----------------1-----1-----1------1------------||
B||----1-----1-----1-----1------1---1-----1-----1-----1------1------1---1---||
G||*-0-----------0------------0---------2-----------2-------------2--------*||
D||*-------2-----------2----------2-----------3-----------3-----------3----*||
A||-------------------------------------------------------------------------||
E||-------------------------------------------------------------------------||


Refrain :
---------

C                       Am
    Everybody got their reason
                    Em
Everybody got their way 
                           F
We're just catching and releasing 
                                C
what builds up throughout the day 
                  Am
It gets into your body 
                                Em
And it flows right through your blood 
                        F
We can tell eachother secrets 
                        C(Recommencer l'arpege du couplet)
and remember how to love

--------------------------------

Paroles :
---------

Couplet 1 :
-----------
There's a place I go to
Where no one knows me
It's not lonely
It's a necessary thing

It's a place I made up
Find out what I'm made of
The nights I've stayed up
Counting stars and fighting sleep

Pré-Refrain 1 :
---------------
Let it wash over me
I'm ready to lose my feet
Take me off to the place where one reveals life's mystery
Steady on down the line
Lose every sense of time
Take it all in and wake up that small part of me
Day to day I'm blind to see
And find how far to go

Refrain 1 :
-----------
Everybody got their reason
Everybody got their way
We're just catching and releasing
What builds up throughout the day
It gets into your body
And it flows right through your blood
We can tell each other secrets
And remember how to love

Pont :
------
Da da dum da dum dum dum
Da dum dum dum
Da dum dum
Da da dum da dum dum dum
Da dum dum dum
Da dum dum

Couplet 2 :
-----------
There's a place I'm going
No one knows me
If I breathe real slowly
I let it out and let it in

It can be terrifying
To be slowly dying
Also, clarifying
We end where we begin

Pré-Refrain 2 :
---------------
So let it wash over me
I'm ready to lose my feet
Take me off to the place where one reveals life's mystery
Steady on down the line
Lose every sense of time
Take it all in and wake up that small part of me
Day to day I'm blind to see
And find how far to go

Refrain 2 :
-----------
Everybody got their reason
Everybody got their way
We're just catching and releasing
What builds up throughout the day
It gets into your body
It flows right through your blood
We can tell each other secrets
And remember how to love

Pont : 
------
Da da dum da dum dum dum
Da dum dum dum
Da dum dum
Da da dum da dum dum dum
Da dum dum dum
Da dum dum

Refrain 3 :
-----------
Everybody got their reason
Everybody got their way
We're just catching and releasing
What builds up throughout the day
And it gets into your body
And it flows right through your blood
We can tell each other secrets
And remember how to love

----------------------------------------

Structure du morceau :
----------------------

Intro : 2 Fois l'arpège
Couplet 1 : 2 Fois l'arpège
Pré-Refrain 1 : 2 Fois l'arpège
Refrain 1
Pont : 2 Fois l'arpège
Couplet 2 : 2 Fois l'arpège
Pré-Refrain 2 : 2 Fois l'apège
Pont : 2 Fois l'arpège
Refrain 3



Laisser un commentaire