Tous les tutos

Raphaël - Caravane

Posté le | Variété Française | 3 663 vues
Caravane - Raphaël

Capo 7

/****************  INFOS  *************************/

Ryhtmique Globale : 

B HHB HHB BH

Varation que l'on peut faire :

B HHB HBHB BH

Sur l'enchaînement F - G

F : B HHB HHB BHB BBH 
G : BBB (BH)

/**************************************************/

Intro : 
------

Am - Am - C - C - G

Couplet 1 :
-----------

Am

Am                                    C
     Est-ce que j'en ai les larmes aux yeux
C                                   G
   Que nos mains ne tiennent plus ensemble
Am                         C  
    Moi aussi je tremble un peu
G                                 F       G
     Est-ce que je ne vais plus attendre

Couplet 2 :
-----------

Am

Am                              C
   Est-ce qu'on va reprendre la route
C                                     G
    Est-ce que nous sommes proches de la nuit
Am                             C
   Est-ce que ce monde a le vertige
G                              F ( Riff )
   Est-ce qu'on sera un jour puni

Riff :
------

                     Am
e|-1-0---------------0h0--------|
B|-----3-1-0h1p0-----0h1--------|
G|---------------2---0h2--------|
D|-------------------0h2--------|
A|------------------------------|
E|------------------------------|


Couplet 3 :
-----------

Am                              C
   Est-ce que je rampe comme un enfant
C                               G
   Est-ce que je n'ai plus de chemise
Am                         C
   C'est le Bon Dieu qui nous fait
G                             F      G
   C'est le Bon Dieu qui nous brise

Couplet 4 :
-----------

Am

Am                             C
   Est-ce que rien ne peut arriver
C                                     G
   Puisqu'il faut qu'il y ait une justice
Am                           C
   Je suis né dans cette caravane
G                         F      G 
   Et nous partons allez viens
       

Interlude : Faire pareil que pour les couplets
-----------
      Am
Allez viens
Am - C - C - G - Am - C - G - F - G
Tu lu tu tu, tu lu tu tu...


Couplet 5 :
-----------
Am

Am                                        C
   Et parce que ma peau est la seule que j'ai
C                                    G
   Que bientôt mes os seront dans le vent
Am                           C  
   Je suis né dans cette caravane
G                        F      G
   Et nous partons allez viens


Outro + Solo : Faire pareil que pour les couplets
-----------
      Am
Allez viens
Am - C - C - G - Am - C - G - F - G
Tu lu tu tu, tu lu tu tu...

Solo :
------

Faire le Solo pendant la séquence D'accord Am-C-etc etc. La chanson se finit
sur une deuxieme répétition du solo.


e||--------------7-7-7-5-7-5-7--5-7--5-7-8-7-5-7-5-7p5---5-7---10-10-10-8-7-------|
B||--7h8-7---8-----------------------------------------8--------------------10----|
G||*-7-----9----------------------------------------------------------------------|
D||*-7----------------------------------------------------------------------------|
A||-------------------------------------------------------------------------------|
E||-------------------------------------------------------------------------------|

e|-8-7------------15-15-15-15-15-15-14-------|
B|-----10-8---8------------------------------|
G|-------------------------------------------|
D|----------9--------------------------------|
A|-------------------------------------------|
E|-------------------------------------------|

e|-----------------------------------2-3-5-3-2h3p2--------||
B|------5------------------------3-5----------------3s5---||
G|--5-7---5-7-4-5----------2-4-5-------------------------*||
D|----------------2--2-4-5-------------------------------*||
A|--------------------------------------------------------||
E|--------------------------------------------------------||




Laisser un commentaire