Tous les tutos

Eric Clapton - Layla ( Solo Unplugged )

Posté le | Solo | 5 860 vues
Eric Clapton - Layla Unplugged - SOLO

Pour l'accompagnement vous continuer sur la séquence 
qu'on jouer pour le refrain, à savoir, Dm/Bb/C/Dm

La vidéo Unplugged : http://www.youtube.com/watch?v=ZtxO1gwbHPQ

Le solo commence à 3 minute :


e|-5~-5~---5~-5~-5~---5~-----------------------------|
B|-6~-6~---6~-6~-6~---6~-----------------------------|
G|------7----------7-----7-5-------------------------|
D|---------------------------7-6-5s3-5p3-----3-------|
A|----------------------------------------5----------|
E|---------------------------------------------------|


e|-------------------------------------------------------|
B|---s13-s13-s13-----s13-s13-s13------s13-s13-s13--------|
G|---s14-s14-s14-----s14-s14-s14------s14-s14-s14--------| X2
D|-------------------------------------------------------|
A|-------------------------------------------------------|
E|-------------------------------------------------------|


e|----------------------------------10-12-10h12p10----10-------|
B|-------13-15----------------10-13----------------13----13----|
G|-12s14-------s12--12-10--12----------------------------------|
D|-------------------------------------------------------------|
A|-------------------------------------------------------------|
E|-------------------------------------------------------------|


e|------------------------------------------|
B|-10--10-10-10--11-10----------------------|
G|----------------------12--10-9--7-9-7~----|
D|------------------------------------------|
A|------------------------------------------|
E|------------------------------------------|


e|------------------------------------------|
B|-------5-6-5h6p5--------------------------|
G|-5---7-----------7-5----------------------|
D|---7-----------------7-6-5s3-5p3-----3----|
A|---------------------------------5~-------|
E|------------------------------------------|


e|-13-10~---10-10h12-12-10----------------------10----13-10-------15-15-15-13---|
B|-------13----------------13-10----10~-------------10------13------------------|
G|-------------------------------13---------------------------------------------|
D|------------------------------------------------------------------------------|
A|------------------------------------------------------------------------------|
E|------------------------------------------------------------------------------|


e|-------12-13-15--13-15--12-13-------------------------------------------------|
B|----15------------------------15-13------------13----10-----------------------|
G|-14---------------------------------14s12---10----12----s12-10----------------|
D|----------------------------------------------------------------12------------|
A|------------------------------------------------------------------------------|
E|------------------------------------------------------------------------------|


e|---------------------------------------------|
B|-10--10-10-10--------------------------------|
G|-10--9--9--9---9-10-----5--------------------|
D|--------------------12----7-6-5s3-5p3--------|
A|--------------------------------------5------|
E|---------------------------------------------|




Laisser un commentaire