Tous les tutos

Chris Isaak - Wicked Game

Posté le | Folk | 2 131 vues

Tablature de la chanson Wicked Game de Chris Isaak

Wicked Game - Chris Isaak 

(Version de James Vincent McMorrow)

Capo 2

Accords :
---------
Bm : x24432  A : x02220   E : 022100

Motif global pour toute la chanson
----------------------------------

    Bm               A                E                E
e|------------------|----------------|----------------|-----------------|
B|----3-----3-------|--2-----2-------|--0-----0-------|--0-----0--------|
G|*-----4-----4---4-|----2-----2---0-|----1-----1--1--|----1-----1---0-*|
D|*-------4-----4---|------2-----2---|------2-----2---|-------2----2---*|
A|--2---------------|0---------------|----------------|-----------------|
E|------------------|----------------|0---------------|0----------------|

Couplet 1 et refrain 1 :
------------------------
C'est juste une petite variation sur le premier E ;).

    Bm               A                E                E
e|------------------|----------------|----------------|-----------------|
B|----3-----3-------|--2-----2-------|--0-----0-------|--0-----0--------|
G|*-----4-----4---4-|----2-----2---0-|----1-----1-1h2-|----1-----1---0-*|
D|*-------4-----4---|------2-----2---|------2-----2---|-------2----2---*|
A|--2---------------|0---------------|----------------|-----------------|
E|------------------|----------------|0---------------|0----------------|

Alternative pour la fin des refrains :
  
                                      E                E
e|---2-------------------------------|----------------|-----------------|
B|-----3---5-3----2------------------|--0-----0-------|--0-----0--------|
G|-------4------------4---4---2---0--|----1-----1-1h2-|----1-----1---0-*|
D|------------------------------4----|------2-----2---|-------2----2---*|
A|-2------------2---2---2---2--------|----------------|-----------------|
E|-----------------------------------|0---------------|0----------------|

Intro (x2):
-----------
Bm A E E

Couplet 1:
----------
Bm                         A                    E (x2)
The world was on fire, and no one could save me but you
Bm                            A                   E (x2)
It's strange what desire will make foolish people do
Bm                      A               E(x2)
I never dreamed that I'd need somebody like you
Bm                     A                E(x2)
I never dreamed that I'd know somebody like you

Refrain 1 :
-----------
    Bm   A                E(x2)
And I      wanna fall in love
    Bm   A                E(x2)
And I      wanna fall in love
       Bm      A      E(x2) 
with you
       Bm      A      E(x2)
with you

Couplet 2 :
-----------
Bm                A            E(x2) 
  What a wicked game you play,   you make me feel this way
Bm                A          E(x2)       
  What a wicked thing to do,   make me dream of you
Bm                A          E(x2)
  What a wicked thing to say,  never felt that way
Bm                A          E(x2) 
  What a wicked thing to do,   make me dream of you

Refrain 2 :
-----------
    Bm   A                E(x2)
And I      wanna fall in love
    Bm   A                E(x2)
And I      wanna fall in love
       Bm      A      E(x2) 
with you
       Bm      A      E(x2)
with you

Couplet 3 :
-----------
Bm                         A                    E (x2)
The world was on fire, and no one could save me but you
Bm                            A                   E (x2)
It's strange what desire will make foolish people do
Bm                      A               E(x2)
I never dreamed that I'd need somebody like you
Bm                     A                E(x2)
I never dreamed that I'd miss somebody like you

Refrain 3 :
-----------
    Bm   A                E(x2)
And I      wanna fall in love
    Bm   A                E(x2)
And I      wanna fall in love
    Bm   A                E(x2)
And I      wanna fall in love
       Bm      A      E(x2) 
with you
       Bm      A      E(x2)
with you

Nobody loves no one


Laisser un commentaire