Tous les tutos

Jean-Jacques Goldman - On Ira

Posté le 31 juillet 2015 | Variété Française | 34 477 vues
On Ira - Jean Jacques Goldman

Rythmique : B BH HBH

La Tablature du solo est relative au capo

Capo 3

Intro : 
-------
G   D  Em  C              
G   D  C   D


e|-3-------7--5----5--5--3--3--7--10-10-8---------7--7-7-8-7-7---------|
B|-----3--------3-------------------------8-10-----------------10--10--|
G|---------------------------------------------------------------------|
D|---------------------------------------------------------------------|
A|---------------------------------------------------------------------|
E|---------------------------------------------------------------------|

e|--------8-7-7------7-------------------------------------------------|
B|-8-8--8-------10-8---10--8--8----------------------------------------|
G|---------------------------------------------------------------------|
D|---------------------------------------------------------------------|
A|---------------------------------------------------------------------|
E|---------------------------------------------------------------------|

Couplet 1 :
-----------                             
G                    G
On partira de nuit l'heure ou l on doute
        D                  D
Que demain revienne encore
            C                        C
Loin des vil- les soumises on suivera l autoroute
              G                 D
Ensuite on perdra tous les nords

Couplet 2 :
-----------
G                        G
On laiss'ra nos clés nos cartes et nos codes
          D                D
Prisons pour nous retenir
             C                            C
Tous ces gens qu on voit vivre comme s ils ignoraient
            G               D
Qu un jour il faudra mourir
     C              D
Et qui se font  sur-prendre au soir 



Refrain 1 :
-----------
   G
Oh belle
      D
On ira
       Em             C
On partira toi et moi où ? je ne sais pas
G                        D
     Y a que les routes qui sont belles
    C               D
Et peu importe où elles nous mènent
   G 
Oh belle
    D
On ira
         Em               C
On suivra les étoiles et les chercheurs  d or
G                D                   C   C  D
    Si on trouve on cherchera encore


Couplet 3 :
-----------
G                   G
On échappe à rien même à ses fuites
       D                    D
Quand on se pose on est mort
           C                  C
Oh j ai tant obéi si peu choisi petite
             G              D
Et le temps perdu me dévore


Couplet 4 :
-----------
G                          G
On prendra les froids les brûlures en face
         D                D     
On interdira les tièdeurs
           C                 C
Les fumées les alcools et les calmants cuirasses
            G                   D
Qui nous ont volés nos douleurs  
       C           D  
La vérité nous fera plus peur


Refrain 2 :
-----------
G 
Oh  belle
     D
On ira
         Em            C
On partira toi et moi ou ? je sais pas
G                  D
Y a que des routes  qui tremblent
     C            D
Les destinations se ressemblent   
G  
Oh  belle
       D
Tu verras
             Em           C                 Am
On suivra les étoiles et les chercheurs d or
               G               D                 D
On s arrêtera jamais dans les ports........ jamais 

Solo Sax :
----------
Séquence d'accord

A - D - E - A
D - A - F#m - Esus4
A - D - E - A
F - C - Eb - D - Dsus4

A               D               E               A
--------|---------------5-------4---2-----2-----0--------------|
--------|-------------5-----------------------------3---2------|
---2----|--------6-7-------------------------------------------|
--2-----|----s7------------------------------------------------|
--------|------------------------------------------------------|
--------|------------------------------------------------------|

D               A               F#m             Esus4
---------------------------------------------------------------|
--------7-5s3-3---2-2-----------2-------2-3-2------------------|
--------------------------2-4-----------------2-2h4-4---2-4-4--|
-----s7--------------------------------------------------------|
---------------------------------------------------------------|
---------------------------------------------------------------|

A               D               E               A
--------------5-----------5s7-4-----2-2----------------------|
------------5-----------------------------5--s5--------------|
--------6-7--------------------------------------------------|
---s7-7------------------------------------------------------|
-------------------------------------------------------------|
-------------------------------------------------------------|

F               C               Eb              Dsus4
-------------------------------------------------------------|
-----------8b10r8b10-b10-8-------8--8-8-8----10-10-----------|
-5--5--------------------------------------------------------|
-------------------------------------------------------------|
-------------------------------------------------------------|
-------------------------------------------------------------|

Refain 3 :
----------
   G      
Oh Belle
      D
On ira
            Em             C                G
Et l'ombre ne nous rattrapera peut-être pas
                    D
On ne changera pas le monde
      C           D        
Mais il nous changera pas
    G
Ma belle
           D
Tiens mon bras
            Em                C            G
On s ra des milliers dans ce cas tu verras
            D                   C     D         
Et même si tout est joué d avance  on ira  on ira


Outro :
-------
G     D
     Em                C              G
Et même si tout est joué d avance        A côté de moi
D        C                                D
Tu sais y a que les routes qui sont belles
               G           D          Em    C
Et crois moi    on partira   tu verras
                G      D                   Em C G D G
Si tu me crois belle       si tu me crois         un jour

Donations

Vous appreciez mon travail et voulez me soutenir ?
Vous pouvez me soutenir en faisant un don ;)



Laisser un commentaire