Tous les tutos

Weezer - Island In The Sun

Posté le | Pop/Folk | 1 559 vues
Island In The Sun - Weezer

/**************** INFOS ************/

Rythmique :

Intro + Couplet + Refrain :
---------------------------
Em : B BH
Am : B B
D : H HB
G : HBHBH

Pont : 
BBBB
/************************************/
Chanson 

Intro : 
-------

Em  Am  D  G
            Heh Heh
Em  Am  D  G
            Heh Heh
Em  Am  D  G
            Heh Heh
Em  Am  D  G
            Heh Heh

Couplet 1 :
-----------

Em  Am          D        G
       When you are on a holiday
Em  Am          D        G
      You can't find the words to say
Em  Am         D           G
       All the things that come to you
Em  Am      D      G
      And I wanna feel it to


Refrain :
---------

Em  Am      D       G
      On an island in the sun,
Em  Am         D          G
      We'll be playin' n’ havin' fun
Em  Am       D        G       Em
      And it makes me feel so fine 
  Am       D       G
I can't control my brain


Em  Am  D  G
            Heh Heh
Em  Am  D  G
            Heh Heh

Couplet 2 :
-----------

Em  Am         D         G
      When you are on a golden sea
Em  Am          D       G
      You don't need no memory
Em  Am       D        G
      Just a place to call your own
Em  Am      D       G
      As we drift into the zone

Refrain 2 :
-----------

Em  Am      D       G
      On an island in the sun,
Em  Am         D          G
      We'll be playin' n’ havin' fun
Em  Am       D        G       Em
      And it makes me feel so fine 
  Am       D       G
I can't control my brain


Pont :
------

D      D     G     G
 We'll run away together
D       D         G       G
 We'll spend some time forever
C      C     Am       Am  D    D     D    D
 We'll never feel bad anymore               Heh Heh


Em  Am  D  G
            Heh Heh
Em  Am  D  G
            Heh Heh


Solo : [Em][Am][D][G] x4

e||-------------------------------------------------| 
B||-------------------------------------------------| 
G||----7--9--7--5--4--5--4------4-------------------| 
D||--------------------------5-----7--5--4-5--5-----| 
A||-------------------------------------------------| 
E||-------------------------------------------------| 


Riff que l'on entend régulièrement tout le long de la chanson

e||-------------------------------------------------| 
B||------8--8---8---8---7--7--8--8------------------| 
G||----9--9---9---9---7--7--7--7--------------------| 
D||-------------------------------------------------| 
A||-------------------------------------------------| 
E||-------------------------------------------------| 


Refrain 3:
----------
Em  Am      D       G
      On an island in the sun,
Em  Am         D          G
      We'll be playin' n’ havin' fun
Em  Am       D        G       Em
      And it makes me feel so fine 
  Am       D       G
I can't control my brain

Pont :
------
D      D     G     G
 We'll run away together
D       D         G       G
 We'll spend some time forever
C      C     Am       Am  D    D     D    D
 We'll never feel bad anymore               Heh Heh


Fin [Em][Am][D][G] x4


Laisser un commentaire