Tous les tutos

Kt Tunstall - I want you back

Posté le | Pop/Folk | 2 591 vues
I want you back - KT Tunstall

Intro :

e||--x----x-x-x-x-x----x-x-x---x-x--||
B||--x----x-x-x-x-x----x-x-x---x-x--||
G||*-x----x-x-x-x-x----x-x-x---x-x-*||
D||*-x----x-x-x-x-x----x-x-x---x-x-*||
A||--x----x-x-x-x-x----x-x-x---x-x--||
E||--x----x-x-x-x-x----x-x-x---x-x--||

     B    B H B H B    H B B   B H


Couplets :
----------

     E                    G#m7         A

e||--0--x-x-x--x-x--x---x--x--x-x----0--x-x-x--x-x--x---0--x-x-x-x---
B||--0--x-x-x--x-x--x---4--x--4-x----2--x-x-x--x-x--x---2--x-x-x-x---
G||*-1--x-x-x--x-x--x---4--x--4-x----2--x-x-x--x-x--x---2--x-x-x-x---
D||*-2--x-x-x--x-x--x---4--x--4-x----2--x-x-x--x-x--x---2--x-x-x-x---
A||--2--x-x-x--x-x--x---x--x--x-x----0--x-x-x--x-x--x---0--x-x-x-x---
E||--0--x-x-x--x-x--x---4--x--4-x----x--x-x-x--x-x--x---x--x-x-x-x---

     B  B H B  B H  H   B  B  H B    B  B H B  B H  H   B  B H B H
 

   E/C#     G#m7      A    E           F#m7     B7    E   Esus4

e|-x--x-x---x--x-x----0--x-0---0-0-0---x--x-x---2--x--0-0-0--0-----||
B|-9--x-x---4--x-x----2--x-0---0-0-0---2--x-x---0--x--0-0-0--0-----||
G|-9--x-x---4--x-x----2--x-1---1-1-1---2--x-x---2--x--1-1-2--1----*||
D|-9--x-x---4--x-x----2--x-2---2-2-2---2--x-x---1--x--2-2-2--2----*|| X2
A|-x--x-x---x--x-x----0--x-2---2-2-2---x--x-x---2--x--2-2-2--2-----||
E|-9--x-x---4--x-x----x--x-0---0-0-0---2--x-x---x--x--0-0-0--0-----||

   B  B H   B  B H    B  B H   H B H   B  B H   B  B  H H B  B


Refrains :
----------
 
     E*               E/C#     E/B       Aadd9         Badd11
     
e||--x--x-x--x--x-x---x--x-x---x--x-x----0--0-0-0-0--0-0-0---------
B||--x--x-x--x--x-x---9--x-x---9--x-x----0--0-0-0-0--0-0-0---------
G||*-9--x-x--9--x-x---9--x-x---9--x-x----6--6-6-6-6--6-8-8---------
D||*-9--x-x--9--x-x---9--x-x---9--x-x----7--7-7-7-7--7-9-9---------
A||--7--x-x--7--x-x---x--x-x---x--x-x----7--7-7-7-7--7-9-9---------
E||--0--x-x--0--x-x---9--x-x---7--x-x----x--x-x-x-x--x-x-x---------

     B  B H  B  B H   B  B H   B  B H    B  H B H B  H B B


   E/C#     G#m7      A    E           F#m7     B7    E   Esus4

e|-x--x-x---x--x-x----0--x-0---0-0-0---x--x-x---2--x--0-0-0--0-----||
B|-9--x-x---4--x-x----2--x-0---0-0-0---2--x-x---0--x--0-0-0--0-----||
G|-9--x-x---4--x-x----2--x-1---1-1-1---2--x-x---2--x--1-1-2--2----*||
D|-9--x-x---4--x-x----2--x-2---2-2-2---2--x-x---1--x--2-2-2--2----*|| X2
A|-x--x-x---x--x-x----0--x-2---2-2-2---x--x-x---2--x--2-2-2--2-----||
E|-9--x-x---4--x-x----x--x-0---0-0-0---2--x-x---x--x--0-0-0--0-----||

   B  B H   B  B H    B  B H   H B H   B  B H   B  B  H H B  B

On peut aussi finir le refrain en remplacant le dernier E par
ceci ( pour enchaîner plus facilement sur l'interlude )

Fin alternative refrain ;) ( j'fais des tabs "director's cut" :D )
--------------------------

   F#m7     B7 

e|-x--x-x---2--x--            -x-x-x-----------
B|-2--x-x---2--x--            -x-x-x-----------
G|-2--x-x---1--x--            -x-x-x-----------
D|-2--x-x---2--x--            -x-x-x--14--14---
A|-x--x-x---2--x--            -x-x-x--x---x----
E|-2--x-x---x--x--            -x-x-x--12--12---

   B  B H   B  B               H B H  B   B


Interlude : 
-----------

e||-------------------------------------||
B||-------------------------------------||
G||*-----------------------------------*||
D||*-14--x-x-x-x-14---x--14-14---x-x---*||
A||--x---x-x-x-x-x----x--x--x----x-x----||
E||--12--x-x-x-x-12---x--12-12---x-x----||

     B   B H B H B    H  B  B    B H



Fin de la chanson : ( même principe que l'interlude )
A jouer après le Refrain 3

      E                  E(barré)

e||---0---x-x-x-x-0---x--7-7---x--x--------||
B||---0---x-x-x-x-1---x--9-9---x--x--------||
G||*--1---x-x-x-x-2---x--9-9---x--x-------*||
D||*--2---x-x-x-x-2---x--9-9---x--x-------*||
A||---2---x-x-x-x-2---x--7-7---x--x--------||
E||---0---x-x-x-x-0---x--0-0---x--x--------||

      B   B H B H B   H  B B   B  H



Structure du morceau :
----------------------

Intro : Répétitions au choix ;) + Parties du couplet ( Sans chant )
Couplet 1
Couplet 2 :  
Refrain : X 2
Interlude : Au choix ;)
Couplet 3 : X 2
Refrain 2 : X 2
Interlude : Au choix ;)
Refrain 3 : X2

Et partie "fin de la chanson" ;)

Puis on enchaine sur la 2ème partie du refrain 
( que j'ai appelé Refrain 3 )

Avant de finir sur la partie "fin de la chanson" :D


***Chanson***

Couplet 1 :
-----------

E              G#m7         A                     
When I had you to myself I didn’t want you around

E/C#  G#m7    A     E       F#m7       B7     E   Esus4 E

pretty faces always made you Stand out in a crowd
 

Couplet 2 :
-----------

Then someone picked you from the bunch a glance was all it took

Now it’s much too late for me To take second look


Refrain :
---------

E*      E/C#  E/B      Aadd9        Badd11

Oh baby give me one more chance To show you that I love you

E/C#  G#m7 A     E   F#m7 B7  E       Esus4   E

Won’t you please send me      back in your heart

E*      E/C#  E/B      Aadd9        Badd11 

Oh darlin’ I was blind to let you go

E/C#  G#m7 A     E   F#m7 B7  E       Esus4   E

But now since I see you in his arms

Interlude :
-----------

I want you back oo oo Yeah Yeah

I want you back Oo oo Baby Yeah

I want you back Yeah Yeah Yeah Yeah

I want you back Oo oo darlin..
 

Couplet 3 :
----------- 

Trying to live without your love Is one long sleepless night

Let me show you girl that I know wrong from right


Couplet 4 :
----------- 

Every street you walk on I leave tear stains on the ground

Following the girl I didn’t even want around

 
Refrain :
---------

E*      E/C#  E/B      Aadd9        Badd11

Oh baby give me one more chance To show you that I love you

E/C#  G#m7 A     E   F#m7 B7  E       Esus4   E

Won’t you please send me      back in your heart

E*      E/C#  E/B      Aadd9        Badd11 

Oh darlin’ I was blind to let you go

E/C#  G#m7 A     E   F#m7 B7  E       Esus4   E

But now since I see you in his arms


Interlude :
-----------

I want you back oo oo Yeah Yeah

I want you back Oo oo Baby Yeah

I want you back Yeah Yeah Yeah Yeah

I want you back Oo oo darlin..


Refrain 3 :
-----------

E*      E/C#  E/B      Aadd9        Badd11 

Oh Baby I was blind to let you go

E/C#  G#m7 A     E   F#m7 B7  E       Esus4   E

Won’t you please send me      back in your heart

E*      E/C#  E/B      Aadd9        Badd11

Oh baby give me one more chance To show you that I love you

E/C#  G#m7 A     E   F#m7 B7  E       Esus4   E

But now since I see you in his arms


Interlude :
-----------

I want you back oo oo Yeah Yeah

I want you back Oo oo Baby Yeah



Laisser un commentaire