Tous les tutos

Glen Hansard - Falling Slowly

Posté le 15 septembre 2013 | Folk | 3 931 vues
Glen Hansard & Marketa Irglova - Falling slowly ( Bo du film Once )

Intro

   C                         F
e|--------------0------------------------1-----0------
B|-1-----3------------3------1-----3------------------
G|----0-----0------0-----0------2-----2-----2-----0---
D|----------------------------------------------------
A|-3--------------------------------------------------
E|---------------------------1------------------------

   C                          F
e|-------------0---------------------------------------
B|-1-----3------------3-------1-----1-----1-----1------
G|----0-----0------0-----0-------2-----2-----2-----0---
D|-----------------------------------------------------
A|-3---------------------------------------------------
E|----------------------------1------------------------

Verse 1 

   C                         F
e|--------------0------------------------1-----0------
B|-1-----3------------3------1-----3------------------
G|----0-----0------0-----0------2-----2-----2-----0---
D|----------------------------------------------------
A|-3--------------------------------------------------
E|---------------------------1------------------------
   I dont know you           But i want you

   C                          F
e|-------------0---------------------------------------
B|-1-----3------------3-------1-----1-----1-----1------
G|----0-----0------0-----0-------2-----2-----2-----0---
D|-----------------------------------------------------
A|-3---------------------------------------------------
E|----------------------------1------------------------
   All    the   more   for  that

   C                         F
e|--------------0------------------------1-----0------
B|-1-----3------------3------1-----3------------------
G|----0-----0------0-----0------2-----2-----2-----0---
D|----------------------------------------------------
A|-3--------------------------------------------------
E|---------------------------1------------------------
   Words fall through me    and always fool me 

   C                          F
e|-------------0---------------------------------------
B|-1-----3------------3-------1-----1-----1-----1------
G|----0-----0------0-----0-------2-----2-----2-----0---
D|-----------------------------------------------------
A|-3---------------------------------------------------
E|----------------------------1------------------------
   and  I   can't   react

Pré refrain

   Am          G         F          G
e|-----------------------------------------------------
B|------1------0-----0---------1----0-----0------------
G|-2-------------0-------2------------0----------------
D|----2---2--------0--------3----3------0--------------
A|-0---------------------------------------------------
E|-------------3---------1----------3------------------
Games that ne-  ver a-mount to    more than they're
 
  Am           G           F X 2( rythmique )
e|------------------------------------------------------
B|------1------0-----0----------------------------------
G|-2-------------0--------------------------------------
D|----2---2--------0-------( B BHB BHHB BHBH )----------
A|-0----------------------------------------------------
E|-------------3----------------------------------------
   meant  will play  them-selves out


Refrain 

C                 F                 Am                   F
Take this sinking boat and point it home we've still got time
C                   F                 Am                    F ( x 2 )
Raise your hopefull voice you had the choice you've made it known

Verse 2 

   C                         F
e|--------------0------------------------1-----0------
B|-1-----3------------3------1-----3------------------
G|----0-----0------0-----0------2-----2-----2-----0---
D|----------------------------------------------------
A|-3--------------------------------------------------
E|---------------------------1------------------------
   Fa- lling slow-ly         eyes that know me 

   C                          F
e|-------------0---------------------------------------
B|-1-----3------------3-------1-----1-----1-----1------
G|----0-----0------0-----0-------2-----2-----2-----0---
D|-----------------------------------------------------
A|-3---------------------------------------------------
E|----------------------------1------------------------
   and  I   can't go back

   C                         F
e|--------------0------------------------1-----0------
B|-1-----3------------3------1-----3------------------
G|----0-----0------0-----0------2-----2-----2-----0---
D|----------------------------------------------------
A|-3--------------------------------------------------
E|---------------------------1------------------------
   Moods that take me        and e-  rase me  

   C                          F
e|-------------0---------------------------------------
B|-1-----3------------3-------1-----1-----1-----1------
G|----0-----0------0-----0-------2-----2-----2-----0---
D|-----------------------------------------------------
A|-3---------------------------------------------------
E|----------------------------1------------------------
    and I'm painted black

Pré refrain

   Am          G         F          G
e|-----------------------------------------------------
B|------1------0-----0---------1----0-----0------------
G|-2-------------0-------2------------0----------------
D|----2---2--------0--------3----3------0--------------
A|-0---------------------------------------------------
E|-------------3---------1----------3------------------
 You have     suffered enough and   warred with 
 
  Am           G           F X 2( rythmique )
e|------------------------------------------------------
B|------1------0-----0----------------------------------
G|-2-------------0--------------------------------------
D|----2---2--------0-------( B BHB BHHB BHBH )----------
A|-0----------------------------------------------------
E|-------------3----------------------------------------
yourself   it's  time that you    wo-on

Refrain :

C                 F                 Am                   F
Take this sinking boat and point it home we've still got time
C                   F                 Am                    F
Raise your hopefull voice you had the choice you've made it known
C              F               Am             F
Falling slowly sing your me-lo-dy I'll sing a-long

C F Am F( On joue le F plusieurs fois avant de finir en rejouant l'intro ;) )

Donations

Vous appreciez mon travail et voulez me soutenir ?
Vous pouvez me soutenir en faisant un don ;)



Laisser un commentaire