Tous les tutos

Kansas - Dust in the wind ( Solo Violon )

Posté le 12 septembre 2014 | Pop/Folk | 7 781 vues
Kansas - Dust in the wind ( Solo Violon )

Tuto de la chanson complète ici

SOLO ( violon ) QUE L'ON JOUE PENDANT LE PONT :

On commence le solo lors de la DEUXIEME répétition du pont

e|------------------------7-8-10-------------------5-7-8---7-5------------------|
B|-5~----------------8-10----------------------6-8------------------------------|
G|-----7-5-4-5-7-------------------5-4---4-5------------------------------------|
D|-------------------------------------7----------------------------------------|
A|------------------------------------------------------------------------------|
E|------------------------------------------------------------------------------|


e|-7-8p7p5---5--------------|
B|---------8---8-5---5~-----|
G|-----------------7--------|
D|--------------------------|
A|--------------------------|
E|--------------------------|


e|----------------------7-8-10-------------------5-7-8---7-5------------------|
B|-----------------8-10----------------------6-8------------------------------|
G|---7-5-4-5-7-------------------5-4---4-5------------------------------------|
D|-----------------------------------7----------------------------------------|
A|----------------------------------------------------------------------------|
E|----------------------------------------------------------------------------|


e|----------------------12-13-15~--17-15----15----------------------------------|
B|-12-13p12----12-13-15------------------18---18-17-18-17-15-17p15---15---------|
G|----------14-----------------------------------------------------17--17-16-14-|
D|------------------------------------------------------------------------------|
A|------------------------------------------------------------------------------|
E|------------------------------------------------------------------------------|


e|-------------------------------------------13-17-15---------------------------|
B|-------------------15-17-13-15-17-13-15-17------------------------------------|
G|-14-16-17-14-16-17------------------------------------------------------------|
D|------------------------------------------------------------------------------|
A|------------------------------------------------------------------------------|
E|------------------------------------------------------------------------------|


e|-17-15----15----------------------------------|
B|-------18---18-17-18-17-15-17p15---15---------|
G|---------------------------------17--17-16-14-|
D|----------------------------------------------|
A|----------------------------------------------|
E|----------------------------------------------|

Donations

Vous appreciez mon travail et voulez me soutenir ?
Vous pouvez me soutenir en faisant un don ;)



Laisser un commentaire