Tous les tutos

Kansas - Dust in the wind

Posté le 11 septembre 2014 | Folk | 16 955 vues
Kansas - Dust in the wind

Tempo : ~90 à la noire

Intro : 
-------

   C               C maj7              C add9          C
e|---------------------------------|-----------------------------------|
B|-1---------1-----0---------0-----|---3---------3-----1---------1-----|
G|-------0-------0-------0-------0-|---------0-------0-------0-------0-|
D|-----2-------2-------2-------2---|-------2-------2-------2-------2---|
A|-3-------3-------3-------3-------|---3-------3-------3-------3-------|
E|---------------------------------|-----------------------------------|

   A sus2          A sus4              Am              A sus2
e|---------------------------------|-----------------------------------|
B|-0---------0-----3---------3-----|---1---------1-----0---------0-----|
G|-------2-------2-------2-------2-|---------2-------2-------2-------2-|
D|-----2-------2-------2-------2---|-------2-------2-------2-------2---|
A|-0-------0-------0-------0-------|---0-------0-------0-------0-------|
E|---------------------------------|-----------------------------------|

   C add9          C                   C maj7          C add9
e|---------------------------------|-----------------------------------|
B|-3---------3-----1---------1-----|---0---------0-----3---------3-----|
G|-------0-------0-------0-------0-|---------0-------0-------0-------0-|
D|-----2-------2-------2-------2---|-------2-------2-------2-------2---|
A|-3-------3-------3-------3-------|---3-------3-------3-------3-------|
E|---------------------------------|-----------------------------------|

   Am              Asus2               Asus4           Am          G/B
e|---------------------------------|-----------------------------------||
B|-1---------1-----0---------0-----|---3---------3-----1-------1---3---||
G|-------2-------2-------2-------2-|---------2-------2-------2---------||
D|-----2-------2-------2-------2---|-------2-------2-------2-----------||
A|-0-------0-------0-------0-------|---0-------0-------0-------0---2---||
E|---------------------------------|-----------------------------------||

Couplets 1 et 2 : 
-----------------

   C               G/B                 Am
E|---------------------------------|---0-------------------------------|
B|-1---------1-----3---------3-----|-------------1-----1---------1-----|
G|-------0-------0-------0-------0-|---------2-------2-------2-------0-|
D|-----2-------2-------0-------0---|-------2-------2-------2-------2---|
A|-3-------3-------2-------2-------|---0-------0-------0-------0-------|
E|---------------------------------|-----------------------------------|

   G               Dm                  Am                          G/B
E|-----------------1---------1-----|---0-------------------------------|
B|-0---------0-----------3---------|-------------1-----1-------1---3---|
G|-------0-------0-----2-------2---|---------2-------2-------2---------|
D|-----0-------0---0-------0-------|-------2-------2-------2-----------|
A|---------------------------------|---0-------0-------0-------0---2---|
E|-3-------3-----------------------|-----------------------------------|
 
   C               G/B                 Am
E|---------------------------------|---0-------------------------------|
B|-1---------1-----3---------3-----|-------------1-----1---------1-----|
G|-------0-------0-------0-------0-|---------2-------2-------2-------0-|
D|-----2-------2-------0-------0---|-------2-------2-------2-------2---|
A|-3-------3-------2-------2-------|---0-------0-------0-------0-------|
E|---------------------------------|-----------------------------------|

   G               Dm                  Am      
E|-----------------1---------1-----|---0-------------------------------|
B|-0---------0-----------3---------|-------------1-----1---------1-----|
G|-------0-------0-----2-------2---|---------2-------2-------2---------|
D|-----0-------0---0-------0-------|-------2-------2-------2-------2---|
A|---------------------------------|---0-------0-------0-------0-------|
E|-3-------3-----------------------|-----------------------------------|

   D/F#            G                   Am              Am/G   
E|---------------------------------|-----------------------------------|
B|-3---------3-----0---------0-----|---1---------1-----1---------1-----|
G|-------2-------0-------0-------0-|---------2-------2-------2-------2-|
D|-----0-------0-------0-------0---|-------2-------2-------2-------2---|
A|---------------------------------|---0-------0-----------------------|
E|-2-------2-------3-------3-------|-------------------3-------3-------|


				    --> Seulement le 1er couplet
   D/F#            G                    Am                      G/B
E|---------------------------------||-----------------------------------||
B|-3---------3-----0---------0-----||---0h1-------1-----0h1-----3-------||
G|-------2-------0-------0-------0-||---------2-------2-----------------||
D|-----0-------0-------0-------0---||-------2-------2-------------------||
A|---------------------------------||---0-------0-------0-------2-------||
E|-2-------2-------3-------3-------||-----------------------------------||


Pont :  Le solo ( violon à la base ) est indiqué à la fin de la tablature
------

E||----------------------------------|-----------------------------------|
B||--0---------0-----0---------0-----|---0---------0-----0---------0-----|
G||*-------5-------5-------5---------|---------7-------7-------7-------7-|
D||*-----7-------7-------7-------7---|-------5-------5-------5-------5---|
A||--0-------0-------0-------0-------|---0-------0-------0-------0-------|
E||----------------------------------|-----------------------------------|


E|----------------------------------|-----------------------------------||
B|--0---------0-----0---------0-----|---3---------3-----0---------0-----||
G|--------5-------5-------5-------5-|---------5-------5-------5-------5-||
D|------3-------3-------3-------3---|-------3-------3-------3-------3---|| X 3
A|--0-------0-------0-------0-------|---0-------0-------0-------0-------||
E|----------------------------------|-----------------------------------||

Puis refaire l'INTRO


Couplet 3 : 
-----------

   C               G/B                 Am
E|---------------------------------|---0-------------------------------|
B|-1---------1-----3---------3-----|-------------1-----1---------1-----|
G|-------0-------0-------0-------0-|---------2-------2-------2-------0-|
D|-----2-------2-------0-------0---|-------2-------2-------2-------2---|
A|-3-------3-------2-------2-------|---0-------0-------0-------0-------|
E|---------------------------------|-----------------------------------|

   G               Dm                  Am                          G/B
E|-----------------1---------1-----|---0-------------------------------|
B|-0---------0-----------3---------|-------------1-----1-------1---3---|
G|-------0-------0-----2-------2---|---------2-------2-------2---------|
D|-----0-------0---0-------0-------|-------2-------2-------2-----------|
A|---------------------------------|---0-------0-------0-------0---2---|
E|-3-------3-----------------------|-----------------------------------|
 
   C               G/B                 Am
E|---------------------------------|---0-------------------------------|
B|-1---------1-----3---------3-----|-------------1-----1---------1-----|
G|-------0-------0-------0-------0-|---------2-------2-------2-------0-|
D|-----2-------2-------0-------0---|-------2-------2-------2-------2---|
A|-3-------3-------2-------2-------|---0-------0-------0-------0-------|
E|---------------------------------|-----------------------------------|

   G               Dm                  Am      
E|-----------------1---------1-----|---0-------------------------------|
B|-0---------0-----------3---------|-------------1-----1---------1-----|
G|-------0-------0-----2-------2---|---------2-------2-------2---------|
D|-----0-------0---0-------0-------|-------2-------2-------2-------2---|
A|---------------------------------|---0-------0-------0-------0-------|
E|-3-------3-----------------------|-----------------------------------|


				      --> Ne pas faire la 4eme fois (faire OUTRO)
     D/F#            G                   Am              Am/G   
E||----------------------------------||------------------------------------||
B||--3---------3-----0---------0-----||---1---------1-----1---------1------||
G||*-------2-------0-------0-------0-||---------2-------2-------2-------2-*||
D||*-----0-------0-------0-------0---||-------2-------2-------2-------2---*|| X4
A||----------------------------------||---0-------0------------------------||
E||--2-------2-------3-------3-------||-------------------3-------3--------||

  

Outro :
-------

La 4 eme fois :


     Am              Asus2               Asus4           Am
e||----------------------------------|-----------------------------------|
B||--1---------1-----0---------0-----|---3---------3-----1---------1-----|
G||*-------2-------2-------2-------2-|---------2-------2-------2-------2-|
D||*-----2-------2-------2-------2---|-------2-------2-------2-------2---|
A||--0-------0-------0-------0-------|---0-------0-------0-------0-------|
E||----------------------------------|-----------------------------------|

   Asus2           Asus4
e|----------------------------------||
B|-0---------0-----3---------3------||
G|-------2-------2-------2-------2-*||
D|-----2-------2-------2-------2---*|| Fade Out
A|-0-------0-------0-------0--------||
E|----------------------------------||



Structure :
-----------

Intro / Couplet 1 / Couplet 2 / Pont+Intro / Couplet 3 / Outro

************************
************************

Chanson : 
---------

Couplet 1:
----------
I close my eyes,
only for a moment, and the moment's gone 
All my dreams,
pass before my eyes, a curiosity 

Dust in the wind,
all they are is dust in the wind 

Couplet 2 :
-----------
Same old song,
just a drop of water in an endless sea 
All we do,
crumbles to the ground, though we refuse to see 

Dust in the wind,
All we are is dust in the wind 

Couplet 3 :
-----------
Don't hang on,
nothing lasts forever but the earth and sky 
It slips away,
all your money won't another minute buy 

Dust in the wind,
All we are is dust in the wind

**************************************************
**************************************************

LE SOLO ( violon ) QUE L'ON JOUE PENDANT LE PONT :

Tuto ici !
On commence le solo lors de la DEUXIEME répétition du pont

e|------------------------7-8-10-------------------5-7-8---7-5------------------|
B|-5~----------------8-10----------------------6-8------------------------------|
G|-----7-5-4-5-7-------------------5-4---4-5------------------------------------|
D|-------------------------------------7----------------------------------------|
A|------------------------------------------------------------------------------|
E|------------------------------------------------------------------------------|


e|-7-8p7p5---5--------------|
B|---------8---8-5---5~-----|
G|-----------------7--------|
D|--------------------------|
A|--------------------------|
E|--------------------------|


e|----------------------7-8-10-------------------5-7-8---7-5------------------|
B|-----------------8-10----------------------6-8------------------------------|
G|---7-5-4-5-7-------------------5-4---4-5------------------------------------|
D|-----------------------------------7----------------------------------------|
A|----------------------------------------------------------------------------|
E|----------------------------------------------------------------------------|


e|----------------------12-13-15~--17-15----15----------------------------------|
B|-12-13p12----12-13-15------------------18---18-17-18-17-15-17p15---15---------|
G|----------14-----------------------------------------------------17--17-16-14-|
D|------------------------------------------------------------------------------|
A|------------------------------------------------------------------------------|
E|------------------------------------------------------------------------------|


e|-------------------------------------------13-17-15---------------------------|
B|-------------------15-17-13-15-17-13-15-17------------------------------------|
G|-14-16-17-14-16-17------------------------------------------------------------|
D|------------------------------------------------------------------------------|
A|------------------------------------------------------------------------------|
E|------------------------------------------------------------------------------|


e|-17-15----15----------------------------------|
B|-------18---18-17-18-17-15-17p15---15---------|
G|---------------------------------17--17-16-14-|
D|----------------------------------------------|
A|----------------------------------------------|
E|----------------------------------------------|



Laisser un commentaire