Tous les tutos

Lauren Daigle - You Say

Posté le 6 juin 2019 | Pop/Folk | 1 500 vues
You Say - Lauren Daigle

Capo 5

Tempo ~74

Intro:
------
   C                                 Em
e|---------------------------------|---------------------------------|
B|-1-------1-------1-------1-------|-0-------0-------0-------0-------|
G|-----0-------0-------0-------0---|-----0-------0-------0-------0---|
D|---2---2---2---2---2---2---2---2-|---2---2---2---2---2---2---2---2-|
A|-3-------------------------------|---------------------------------|
E|---------------------------------|-0-------------------------------|
   1   -   2   -   3   -   4   -     1   -   2   -   3   -   4   -     

   Am                                F
e|---------------------------------|---------------------------------|
B|-1-------1-------1-------1-------|-1-------1-------1-------1-------|
G|-----2-------2-------2-------2---|-----2-------2-------2-------2---|
D|---2---2---2---2---2---2---2---2-|---3---3---3---3---3---3---3---3-|
A|-0-------------------------------|-3-------------------------------|
E|---------------------------------|---------------------------------|
   1   -   2   -   3   -   4   -     1   -   2   -   3   -   4   -

Couplet 1
---------
C                            Em                     Am      F
I keep fighting voices in my mind that say I'm not enough
C                              Em                   Am      F
Every single lie that tells me I will never measure up
C                              Em                     Am     F
Am I more than just the sum of every high and every low?
C                               Em                     Am        F
Remind me once again just who I am, because I need to know, o-ooh


Refrain
-------
             C                         Em
You say I am loved when I can't feel a thing
             Am                       F
You say I am strong when I think I am weak
             C                      Em
You say I am held when I am falling short
               Am                    F
When I don't belong, oh You say I am Yours
      C             Em
And I believe, oh I believe
         Am
What You say of me
    F
I believe


Couplet 2
---------
    C                              Em                      Am     F
The only thing that matters now is everything You think of me
   C                             Em            Am       F
In You I find my worth, in You I find my identity, o-ooh


Refrain
-------
             C                         Em
You say I am loved when I can't feel a thing
             Am                       F
You say I am strong when I think I am weak
             C                      Em
You say I am held when I am falling short
               Am                    F
When I don't belong, oh You say I am Yours
      C               Em
And I believe, oh I believe
         Am
What You say of me
        F       F
Oh, I believe


Couplet 3
---------
C                             Em                  Am          F
Taking all I have and now I'm laying it at Your feet
    C                           Em                     Am      F
You have every failure God, and You'll have every victory, o-ooh


Refrain
-------
             C                         Em
You say I am loved when I can't feel a thing
             Am                       F
You say I am strong when I think I am weak
             C                       Em
You say I am held when I am falling short
               Am                    F
When I don't belong, oh You say I am Yours
       C              Em
And I believe, oh I believe
         Am
What You say of me
    F
I believe


Refrain
-------
       C             Em
Oh I believe, yes I believe
         Am
What You say of me
       F
Oh I believe


Outro
-----
C - Em - Am - F


Laisser un commentaire