Tous les tutos

The Beatles - Yesterday

Posté le 21 juillet 2014 | Pop/Rock | 45 722 vues
Yesterday - The Beatles

Vous trouverez une explication sur ma 
chaîne youtube ( ipsaous )

Accorder la guitare 1 ton en dessous pour avoir la tonalité
du morceau original :

C'est à dire qu'au lieu d'avoir

E-A-D-G-B-e on aura D-G-C-F-A-D.

   
Intro :
-------

  G
e|----3-- 3---3-- ----3-- 3---3--|----3-- 3---3-------3-- 3---3--|
B|----3---3---3-------3---3---3--|----3---3---3-------3---3---3--|
G|----0---0---0-------0---0---0--|----0---0---0-------0---0---0--|
D|-------------------------------|-------------------------------|
A|-------------------------------|-------------------------------|
E|3---------------3--------------|3---------------3--------------|


Couplets :
---------

  G                         F#m          B7         
e|---3--3--3-----3--3------|---2--2--2-----2--2--2--|
B|---3--3--3-----3--3------|---2--2--2-----0--0--0--|
G|---0--0--0-----0--0------|---2--2--2-----2--2--2--|
D|-------------------------|------------------------|
A|-------------------------|-------------2----------|
E|3-----------3---------0--|2-----------------------|


 Em           Em7          C          D7
e|---0--0--0------0-----0--|---0--0--0-----2--2--2--|
B|---0--0--0------0-----0--|---1--1--1-----1--1--1--|
G|---0--0--0------0-----0--|---0--0--0-----2--2--2--|
D|2------------2-----0-----|------------0-----------|
A|-------------------------|3-----------------------|
E|-------------------------|------------------------|       


  G           Gmaj7      Em7           A            C     G
e|---3--3--3----3----3--|----0--0--0------0--0--0-|-0---- 3---3------3--3--3--|
B|---3--3--3----3----3--|----3--3--3------2--2--2-|-1-----3---3------3--3--3--|
G|---0--0--0----0----0--|----0--0--0------2--2--2-|-0-----0---0------0--0--0--|
D|----------------------|-------------------------|---------------------------|
A|----------------------|--------------0----------|-3-------------------------|
E|3-----------3----2----|0------------------------|-------3-------------------|


Refrains :
----------

   F#m             B7            
e|----2---2---2-------2---2---2--|0-------2-------3-------2---0--|
B|----2---2---2-------0---0---0--|-------------------------------|
G|----2---2---2-------2---2---2--|----0-------0------0-----------|
D|-------------------------------|2-------0----------------------|
A|----------------2--------------|----------------3-------2------|
E|2------------------------------|-------------------------------|
  

  D7              D7              G
e|----2---2---2-------2---2---2--|----3---3---3-------3---3------|
B|----1---1---1-------1---1---1--|----3---3---3-------3---3------|
G|----2---2---2-------2---2---2--|----0---0---0-------0---0------|
D|----------------0--------------|-------------------------------|
A|0------------------------------|-------------------------------|
E|-------------------------------|3---------------3-----------0--|

   F#m             B7            
e|----2---2---2-------2---2---2--|0-------2-------3-------2---0--|
B|----2---2---2-------0---0---0--|-------------------------------|
G|----2---2---2-------2---2---2--|----0-------0------0-----------|
D|-------------------------------|2-------0----------------------|
A|----------------2--------------|----------------3-------2------|
E|2------------------------------|-------------------------------|

  D7        D7         G
e|-------0--------2----3------------------------------------------|
B|-----1--------1------3-----3----1-----0-------------------------|
G|---2--------2-----------0----0-----0-----0----------------------|
D|----------0-----------------------------------------------------|
A|-0--------------------------------------------------------------|
E|---------------------3------------------------------------------|
 


Couplet 4 :
----------
   
    G                         F#m          B7         
e|----3--3--3-----3--3------|---2--2--2-----2--2--2--|
B|----3--3--3-----3--3------|---2--2--2-----0--0--0--|
G|----0--0--0-----0--0------|---2--2--2-----2--2--2--|
D|--------------------------|------------------------|
A|--------------------------|-------------2----------|
E|-3-----------3---------0--|2-----------------------|              
   

  Em           Em7          C           D7
e|---0--0--0------0-----0--|---0--0--0-----2--2--2--|
B|---0--0--0------0-----0--|---1--1--1-----1--1--1--|
G|---0--0--0------0-----0--|---0--0--0-----2--2--2--|
D|2------------2-----0-----|------------0-----------|
A|-------------------------|3-----------------------|
E|-------------------------|------------------------|


  G           Gmaj7      Em7           A            C     G
e|---3--3--3----3----3--|----0--0--0------0--0--0-|-0-----3---3----3--3--3---|
B|---3--3--3----3----3--|----3--3--3------2--2--2-|-1-----3---3----3--3--3---|
G|---0--0--0----0----0--|----0--0--0------2--2--2-|-0-----0---0----0--0--0---|
D|----------------------|-------------------------|--------------------------|
A|----------------------|--------------0----------|-3------------------------|
E|3-----------3----2----|0------------------------|-------3------------------|


Fin de la chanson :

e|-s3----3---3---3---3---3----3----|
B|-s3----3---2---2---1---1h3--1h3--|
G|-----0---0---0---0---0-----------|
D|---------------------------------|
A|---------------------------------|
E|---------------------------------|


Couplet 1:
----------

  Yesterday, all my troubles seemed so far away
  Now it looks as though they're here to stay
  Oh, I believe in yesterday.


Couplet 2:
----------

  Suddenly,I'm not half the man I used to be
  There's a shadow hanging over me
  Oh, yesterday came suddenly.

Refrain 1:
----------

  Why she had to go I don't know she wouldn't say.
  I said something wrong, now I long for yesterday.

Couplet 3:
----------

  Yesterday, love was such an easy game to play.
  Now I need a place to hide away.
  Oh, I believe in yesterday.

Refrain 2:
----------

  Why she had to go I don't know she wouldn't say.
  I said something wrong, now I long for yesterday.

Couplet 4 + fin de la chanson :D :
----------------------------------

  Yesterday, love was such an easy game to play.
  Now I need a place to hide away.
  Oh, I believe in yesterday.

  Mm mm mm mm mm mm mm.

Donations

Vous appreciez mon travail et voulez me soutenir ?
Vous pouvez me soutenir en faisant un don ;)



Laisser un commentaire