Tous les tutos

London Grammar - Wasting my young years

Posté le 21 juillet 2014 | Electro/Pop | 9 053 vues
Wasting my young years - London Grammar

CAPO 1

******************************************************

Intro :
-------

Am   Em   D  D

Couplets 1 et 2 :
-----------------

   Am                  D
e|-0----0---0---3------0h2---2---2----5-------
B|-1----1---1---1------3-----3---3------8-7---
G|-2--2---2---2----2---2---2---2--------------
D|---------------------0----------------------
A|-0------------------------------------------
E|--------------------------------------------

   Am                  D
e|-0----0---0---3------0h2----2--7-7--7-5------
B|-1----1---1---1------3------3-----------8----
G|-2--2---2---2----2---2----2------------------
D|---------------------0-----------------------
A|-0-------------------------------------------
E|---------------------------------------------

   Am                  D
e|-0----0---0---3------0h2---2---2----5--------
B|-1----1---1---1------3-----3---3------8-7----
G|-2--2---2---2----2---2---2---2---------------
D|---------------------0-----------------------
A|-0-------------------------------------------
E|---------------------------------------------
  
   Am                  D
e|-0----0---0----------0h2-----------2---------
B|-1----1---1---3--0---3-----3------3----------
G|-2--2---2---2--------2---2---2---2-----------
D|---------------------0----------0------------
A|-0-------------------------------------------
E|---------------------------------------------

Couplet 3 :
-----------

    Am                   D
e||--0-------------------2--------2------------||
B||--1----1-1-0-3-0------3----3---3----3-------||
G||*-2--2-----------0----2--2---2----2---2----*|| Répéter 3 fois
D||*---------------------0--------------------*||
A||--0-----------------------------------------||
E||--------------------------------------------||

******************************************************************

Capo I

Intro :

Am   Em   D  D


Couplet 1 :
-----------

Am                 D
  You crossed this line
Am                                         D
  Do you find it hard to sit with me tonight?
Am                                                            D
  I've walked these miles but I've walked them straight-lined
Am                                            D
  You'll never know what was like to be fine


Refrain : ( Rythmique : B B HHBB BH )
---------

Am                                   D
  I'm wasting my young years; it doesn't matter here
Am                        D                           
  I'm chasing old ideas; it doesn't matter here
 
Pont :
------
             
( Rythmique : B BB BBBH  ) Faire 2 fois par accord

Am       G
     Maybe
       D
We are
       D
We are
                       Am
Maybe I'm wasting my young years
   G
Maybe
      D
We are
      D
We are
                           
Maybe I'm wasting my young years


Couplet 2 :
----------

Am  D

Am                    D
  Don't you know that it's only fear?
Am                                 D
  I wouldn't worry; you have all your life
Am                                        D
  I've heard it takes some time to get it right


Refrain 2 :
-----------

Am                                D
  I'm wasting my young years; it doesn't matter here
Am                       D                      
  I'm chasing old ideas; it doesn't matter here

Pont 2 :
--------

Am        G
      Maybe
       D
We are
       D
We are
                                Am
Maybe I'm wasting my young years
    G
Maybe
       D
We are
       D
We are
          
Maybe I'm wasting my young years


Couplet 3 :
-----------

Am     D     
Am     D
                    Am
I don't know what you are
                      D
Don't leave me hanging on
                    Am
Don't know what you are
                    D
Don't leave me hanging on

Donations

Vous appreciez mon travail et voulez me soutenir ?
Vous pouvez me soutenir en faisant un don ;)



Laisser un commentaire