Tous les tutos

Eddie Vedder - Tuolumne

Posté le 25 juin 2015 | Musique de Film | 5 758 vues
Tuolumne - Eddie Vedder

Tempo ~ 105

/*************** INFOS ***************/

Le pouce joue les 3 cordes Basses ( E, A, D ) (Mi, La, Ré)
L'index joue la corde de G (Sol)
Le majeur joue la corde de B (Si)
L'annulaire joue la corde de e(mi)

/*************************************/

     C
e||--------------------------------------|-1---------1------0-----------0-------||
B||--1--------1------3-----------3-------|-----3----------3-------3-------------||
G||*-----0--------0--------0-----------0-|---0----------0------0----------0----*||X4
D||*---2--------2-------2-----------2----|-------------------------------------*||
A||--3-----3---------3--------3----------|-3------3---------3--------3----------||
E||--------------------------------------|--------------------------------------||

   D7/F#
e|---------------------------------------|---------------------------------------|
B|-1----------1-------3----------3-------|-1----------1-------3----------3-------|
G|------2----------2--------2----------2-|------2----------2--------2------------|
D|----0----------0-------0----------0----|----0----------0-------0----------0----|
A|---------------------------------------|---------------------------------------|
E|-2-------2----------2--------2---------|-2-------2----------2--------2---------|

   Dm/F#              Ralentir le tempo
e|---------------------------------------|--------------------------------------|
B|-3----------3-------1----------1-------|-3----------3-------1-------0h1-------|
G|------2----------2-------2-----------2-|------2----------2--------------------|
D|----0----------0-------0----------0----|----0----------0----------------------|
A|---------------------------------------|--------------------------------------|
E|-1-------1----------1-------1----------|-1-------1----------1-----------------|

     C
e||--------------------------------------|-3---------3------0-----------0-------||
B||--1--------1------3-----------3-------|-----1----------1-------1-------------||
G||*-----0--------0--------0-----------0-|---0----------0------0----------0----*||X2
D||*---2--------2-------2-----------2----|-------------------------------------*||
A||--3-----3---------3--------3----------|-3------3---------3--------3----------||
E||--------------------------------------|--------------------------------------||

     C
e||--------------------------------------|-1---------1------0-----------0-------||
B||--1--------1------3-----------3-------|-----3----------3-------3-------------||
G||*-----0--------0--------0-----------0-|---0----------0------0----------0----*||X2
D||*---2--------2-------2-----------2----|-------------------------------------*||
A||--3-----3---------3--------3----------|-3------3---------3--------3----------||
E||--------------------------------------|--------------------------------------||

   D7/F#
e|---------------------------------------|---------------------------------------|
B|-1----------1-------3----------3-------|-1----------1-------3----------3-------|
G|------2----------2--------2----------2-|------2----------2--------2------------|
D|----0----------0-------0----------0----|----0----------0-------0----------0----|
A|---------------------------------------|---------------------------------------|
E|-2-------2----------2--------2---------|-2-------2----------2--------2---------|

   Dm/F#               Ralentir le tempo
e|---------------------------------------|--------------------------------------|
B|-3----------3-------1----------1-------|-3----------3-------1-----------------|
G|------2----------2-------2-----------2-|------2----------2--------------------|
D|----0----------0-------0----------0----|----0----------0----------------------|
A|---------------------------------------|--------------------------------------|
E|-1-------1----------1-------1----------|-1-------1----------1-----------------|


Donations

Vous appreciez mon travail et voulez me soutenir ?
Vous pouvez me soutenir en faisant un don ;)



Laisser un commentaire