Tous les tutos

Christophe Mae - Tombé sous le charme

Posté le 19 juillet 2013 | Variété Française | 12 885 vues
Tombé sous le charme - Christophe Mae

*******************************************

Indications pour les rythmiques :

Prérefrain :
------------

B HHB HHB BH

Refrain : 
---------

Version facile : B B B BH 

Version un peu plus compliquée :D :

F : B B
C : H HBB BH 
Am : B B
G : H HBB BH 

Pont :
------

B HHB HHB BH


*******************************************

Capo 3

Intro

    Am
e|----------------------------------------
B|--0h1----1----0------0h1------1----0----
G|--2------2----2------2--------2----2----
D|----------------------------------------  X 2
A|--0----0------0------0------0------0----
E|----------------------------------------

    C
e|----------------------------------------
B|----------------------------------------
G|--0------0----0------0------0----0------
D|--0h2----2----0------0h2----2----0------  X 2
A|--3----3------3------3----3------3------
E|----------------------------------------

Couplet 1 :

    Am
e|----------------------------------------
B|--0h1----1----0------0h1------1----0----
G|--2------2----2------2--------2----2----
D|----------------------------------------  X2
A|--0----0------0------0------0------0----
E|----------------------------------------
Je lézarde au soleil, je vois des merveilles.
    C
e|----------------------------------------
B|----------------------------------------
G|--0------0----0------0------0----0------
D|--0h2----2----0------0h2----2----0------  X 2 
A|--3----3------3------3----3------3------
E|----------------------------------------
   Je marche sur l’eau.

    Am
e|----------------------------------------
B|--0h1----1----0------0h1------1----0----
G|--2------2----2------2--------2----2----
D|----------------------------------------  X2
A|--0----0------0------0------0------0----
E|----------------------------------------
Tu me souffles à l’oreille que l’amour te réveille,

    C                                      G
e|------------------------------------------------
B|----------------------------------------0-------
G|--0------0----0------0------0----0------0-------
D|--0h2----2----0------0h2----2----0------0-------
A|--3----3------3------3----3------3--------------
E|----------------------------------------3-------
   qu’ici tout est beau


Pre-refrain

           F                  Am
Alors je laisse mon cœur dérivé
               C                           G
Mon cœur s’étonné, car il faut que je te dise,


Refrain :

F-C-Am-G (en boucle)
Je suis tombé sous le charme, à cause de tes mains tes mots doux,
Tournent autour de mon âme, comme des refrains vaudou
Je suis tombé sous le charme, à cause de ton sein sur ma joue,
Tournent autour de mon âme, et jetons nous dans le Bayou


Couplet 2 ( faire comme le couplet 1 )

Am                                                  C
Je n’crois pas au hasard, le jour comme le soir, tu me tiens chaud.
Am                                                 C          G
Comme l’ébène et l’ivoire, viens on va s’asseoir, au vieux piano


Pre-refrain

          F                     Am               C                   
Alors tu laisses, ton cœur décidé, ton cœur hésité, 
                            G
Mais j’aimerais t’entendre dire.


Refrain :

F-C-Am-G (en boucle)
Je suis tombé sous le charme, à cause de tes mains tes mots doux,
Tournent autour de mon âme, comme des refrains vaudou
Je suis tombé sous le charme, à cause de ton sein sur ma joue,
Tournent autour de mon âme et jetons nous dans le Bayou
Pont

F                  C
Laissons passer les heures,
                G
Laissons passer nos peurs
                 Em              
Et laisse faire ouais, laisse faire le bonheur,
F                        C
Et rempli toi de grandeur, rempli moi de douceur,
G                             G (1x bas)
Et roulons-nous dans les fleurs…

F-C-Am-G (Jusqu'à la fin!)

Je suis tombé sous le charme, à cause de tes mains tes mots doux,
Tournent autour de mon âme, comme des refrains vaudoux
Je suis tombé sous le charme, à cause de ton sein sur ma joue,
Tournent autour de mon âme, et sautons dans le Bayou

Et puis même, si je n’suis pas d’ici, j’connais par cœur le bord du Mississipi,
Même si je n’suis pas de là, je m’oubliai, ouais, m’oubliai dans tes bras,
Même, si je n’suis pas d’ici, j’connais par cœur le bord du Mississipi,
Même si je n’suis pas de là, je m’oubliai, m’oubliai dans tes bras,

Ouais, je veux vivre là tranquille, ouais, m’abandonner dans l’herbe fine,
Ouais, je veux vivre là tranquille, me laisser aller à la Huckleberry Finn
Oui j’veux m’la couler fine, m’la couler douce auprès de toi dans l’herbe fine,
Ouais j’veux vivre la tranquille, je serais ton Huckleberry Finn !

Donations

Vous appreciez mon travail et voulez me soutenir ?
Vous pouvez me soutenir en faisant un don ;)



Laisser un commentaire