Tous les tutos

Guillaume Grand - Toi et Moi

Posté le 23 juin 2015 | Variété Française | 27 067 vues
Toi et Moi - Guillaume Grand

Capo 9

/******************** INFOS  ************************/

La chanson tourne quasiment en boucle sur 4 accords :
Am - F - C - G

Seul le pont sera légèrement différent car on remplacera
le Am ( La mineur ) par un Em ( Mi mineur ).

Pour ma part je joue l'intro et les couplets en arpège
et ensuite je joue les refrains et le pont en rythmique.

Etant donné que les refrains se jouent sur les mêmes 
accords que les couplets, rien ne vous empêches de 
faire toute la chanson en arpège ou, inversement,
seulement en rythmique ! ;)

Rythmique : B BH HBHBHBH HBH 
ou
2 Fois la Rythmique Feu de Camp : B BH HBH


/****************************************************/

Intro + Couplet : 

   Am
e|---------------------------------------------------
B|-----------0---------0h1--------0------------------
G|-----2--------2-----------2---------2------0-------
D|--------2--------2-----------2---------2-----------
A|--0------------------------------------------------
E|---------------------------------------------------

    F
e|---------------------------------------------------
B|-----------0---------0h1--------0------------------
G|-----2--------2-----------2---------2------0-------
D|--3-----3---------3-----------3---------3----------
A|---------------------------------------------------
E|---------------------------------------------------

    C
e|---------------------------------------------------
B|-----------0---------0h1--------0------------------
G|-----0--------0-----------0---------0------0-------
D|--------2--------2-----------2---------2-----------
A|--3------------------------------------------------
E|---------------------------------------------------

    G
e|---------------------------------------------------
B|-----------0---------0h1--------0------------------
G|-----0--------0-----------0---------0------0-------
D|--------0--------0-----------0---------0-----------
A|---------------------------------------------------
E|--3------------------------------------------------

Chanson

Intro
-----

Couplet 1 :
-----------
		Am             F
Je voudrais partir Jusqu’à la mer 
	       C                      G 
Allongé sur le sable Prendre un peu l’air 
		Am 		 F 
Et sentir les embruns Rester encore
	     C  	    G
Rester jusqu’à M'ensaler le corps 

Refrain 1 :
-----------
		Am
On serait juste Toi et Moi 
      F
Près d’ici ou là-bas 
			    C
Sans règles dignes et sans foi
		    G 
Quand tu veux on y va 
			Am
Toutes les couleurs du ciel
		F 
Un plein de bouteilles
		     C 
Du rhum, du vin, du miel
		    G 
Quand tu veux on y va 

Couplet 2 :
-----------
	       Am		    F 
Cachés par les dunes Entre terre et mer
		C 		       G 
Voler un peu de paix Des refrains à la mer
		   Am 			F
Bien sûr tu serais là Moi blotti contre toi
		     C 			     G
J'te raconterais ce rêve Quand tu veux on y va 


Refrain 2 :
-----------
		Am
On serait juste Toi et Moi 
      F
Près d’ici ou là-bas 
			    C
Sans règles dignes et sans foi
		    G 
Quand tu veux on y va 
			Am
Toutes les couleurs du ciel
		F 
Un plein de bouteilles
		     C 
Du rhum, du vin, du miel
		    G 
Quand tu veux on y va 


Pont : 
------

	     Em
Si on vit cachés
Si on vit damnés 
		 F
Et si le temps se compte 
On frustre nos hontes 
		C
Là-bas tu peux mentir 
Là-bas tu peux tricher
		  G 
Là-bas on peut salir, là-bas… 


Refrain 3 :
-----------
		    Am
On peut… être juste Toi et Moi 
      F
Près d’ici ou là-bas 
			    C
Sans règles dignes et sans foi
		    G 
Quand tu veux on y va 
			Am
Toutes les couleurs du ciel
		F 
Un plein de bouteilles
		     C 
Du rhum, du vin, du miel
		    G 
Quand tu veux on y va 


Refrain 4 :
-----------
		Am
On serait juste Toi et Moi 
      F
Près d’ici ou là-bas 
			    C
Sans règles dignes et sans foi
		    G 
Quand tu veux on y va 
		   Am
Quand tu veux on y va ... 

Donations

Vous appreciez mon travail et voulez me soutenir ?
Vous pouvez me soutenir en faisant un don ;)



Laisser un commentaire