Tous les tutos

Ben.E King - Stand by me

Posté le 21 juillet 2014 | Variété Internationale | 23 731 vues
Stand by me - Ben.E King

--------------------------------------
Accords :

A : 577655
F#m : 244222
D : x57775
E : 022100 ou en barré : x79997
--------------------------------------


   A
e||---------x--5---5---------x--5------
B||---------x--5---5---------x--5------
G||*--------x--6---6---------x--6------
D||*--------x--7---7---------x--7------
A||---------x--7---7---------x--7------
E||--0-4-5--x--5---5--0-4-5--x--5------

  F#m
e|----------x--2---2--------x--2--------
B|----------x--2---2--------x--2--------
G|----------x--2---2--------x--2--------
D|----------x--4---4--------x--4--------
A|----------x--4---4--------x--4--------
E|-5-5-4-2--x--2---2--0-0-2-x--2--------

  D
e|--------5--x--5---5--5--5-x-----------
B|--------7--x--7---7--7--7-x-----------
G|--------7--x--7---7--7--7-x-----------
D|--------7--x--7---7--7--7-x-----------
A|--------5--x--5---5--5--5-x-----------
E|-2-2-0--x--x--x---x--x--x-x-----------
                    B  B  B H

   E              A
e|-0--x--0----0----------x--5---5---------x--5---5---||
B|-0--x--0----0----------x--5---5---------x--5---5---||
G|-1--x--1----1----------x--6---6---------x--6---6--*||
D|-2--x--2----2----------x--7---7---------x--7---7--*||
A|-2--x--2----2----------x--7---7---------x--7---7---||
E|-0--x--0----0---0-4-5--x--5---5--0-4-5--x--5---5---||


Intro 

A  F#m  D  E   A

A
When the night has come
F#m
And the land is dark
        D           E                A
And the moon is the only light we'll see
A                          F#m
No I won't be afraid, no I won't be afraid
        D           E               A
Just as long as you stand, stand by me

A                                             F#m
And darlin', darlin', stand by me, oh now now stand by me
D            E        A
Stand by me, stand by me

A
If the sky that we look upon
F#m
Should tumble and fall
        D                E              A
And the mountains should crumble to the sea
A                              F#m
I won't cry, I won't cry, no I won't shed a tear
D                          E        A
Just as long as you stand, stand by me

A                                             F#m
And darlin', darlin', stand by me, oh now now stand by me
D            E        A
Stand by me, stand by me

A                                             F#m
And darlin', darlin', stand by me, oh now now stand by me
D            E        A
Stand by me, stand by me


Donations

Vous appreciez mon travail et voulez me soutenir ?
Vous pouvez me soutenir en faisant un don ;)



Laisser un commentaire