Tous les tutos

Imany - Slow down

Posté le 29 décembre 2011 | Folk | 9 028 vues
Imany - Slow Down

Capo 3

Intro 

    Bm
e||---------------------------------------------
B||--3---------3-------------2-2h3-----2-----3--
G||*------4--------4---4------------------4-----
D||*----4--------4--------4---------------------
A||--2------2----------2------------2-----------
E||---------------------------------------------

    F#m
e|----------------------------------------------
B|--2----------2------------------2-----------2-
G|-------2----------2----2-----4--------4--2----
D|-----2----------2---------2-------------------
A|----------------------------------------------
E|--2-------2------------2------------2---------
                                                   
    Em
e|-------------------------------------------
B|--0----------0--------0----2-2h3-----2--0--
G|-------0----------0------------------------
D|-----2---------2---------2-----------------
A|-------------------------------------------
E|--0-------0-----------0-----------0--------

   Bm
e|-----------------------------------------||
B|--------2-2h3-----2--------3------2--2h3-||
G|--4------------------4----------4-------*||
D|-----4------------------------4---------*||
A|--2------------2-----------2-------------||
E|-----------------------------------------||


Couplet :

    Bm
e||---------------------------------------------
B||--3---------3-------------2-2h3-----2-----3--
G||*------4--------4---4------------------4-----
D||*----4--------4--------4---------------------
A||--2------2----------2------------2-----------
E||---------------------------------------------

    F#m
e|----------------------------------------------
B|--2----------2------------------2-----------2-
G|-------2----------2----2-----4--------4--2----
D|-----2----------2---------2-------------------
A|----------------------------------------------
E|--2-------2------------2------------2---------

    Em
e|-------------------------------------------
B|--0----------0--------0----2-2h3-----2--0--
G|-------0----------0------------------------
D|-----2---------2---------2-----------------
A|-------------------------------------------
E|--0-------0-----------0-----------0--------

   Bm                       Fin du couplet
e|-------------------------||----
B|--------2-2h3-----2------||-3--
G|--4------------------4--*||---4
D|-----4------------------*||----
A|--2------------2---------||-2--
E|-------------------------||----

Refrain :

   Bm
e|---------2---------
B|-----3------3---3--
G|-------4------4----
D|------------------- X 2 
A|--2----------------
E|-------------------

   A
e|----------0--------
B|------2-----2---2--
G|---2----2-----2----
D|------------------- X 2
A|-0-----------------
E|-------------------

   Em7
e|------------
B|--------3---
G|------0-----
D|----2------- X 2 
A|------------
E|--0---------

  G                A                Bm
e|------------------------0--------------0---
B|-----3---0-------------2---2------3--2---2-
G|----0------0----------2------2-------------
D|---0---------------------------------------
A|------------------0------------------------
E|-3-----------------------------------------


Donations

Vous appreciez mon travail et voulez me soutenir ?
Vous pouvez me soutenir en faisant un don ;)



Laisser un commentaire