Tous les tutos

Cats on trees - Sirens Call

Posté le 21 juillet 2014 | Pop | 19 804 vues
Sirens Call - Cats on trees

Rythmiques :
------------

Voici 2 propositions :

* B BH HBH à faire 2 fois par accord

** B BH HBHBHBH HBH à faire 1 fois par accord


Structure du morceau :
----------------------

Am-F-C-G X2
Am-F-C-Em X3
F-Am-C-Em X2
Am-F-C-Em 
Am-F-C-G X3

***********************************************

Capo 5

Intro :

e|----------------------------------
B|----------------------------------
G|-2---2---2---2---2---2---2---2----
D|---2---2---2---2---2---2---2---2--
A|----------------------------------
E|----------------------------------

e||------------------------------------------------------------------
B||------------------------------------------------------------------
G||*-2---2---2---2---2---2---2---2---2---2---2---2---2---2---2---2---
D||*---2---2---2---2---2---2---2---2---0---0---0---0---0---0---0---0-
A||------------------------------------------------------------------
E||------------------------------------------------------------------
                  
e|------------------------------------------------------------------||
B|------------------------------------------------------------------||
G|-2---2---2---2---2---2---2---2---0---0---0---0---0---0---0---0---*||
D|---2---2---2---2---2---2---2---2---0---0---0---0---0---0---0---0-*||
A|------------------------------------------------------------------||
E|------------------------------------------------------------------||

Paroles pour l'intro :
----------------------

Whatever way, the same
Nothing according to plan
If i could just see clearly, into you
The same face every day, the sirens calling away
This mean so much more


             Am
The floating boat is carrying me
                 F
and i can live my story differently
                  C
the greedy sirens are chewing all around me
            G
While i sing oh oh oh oh oh 

               Am
On the falling shoals, i wonder why me ?
                 F
On my way to the falls, i hope you see
                    C
We are heading to the wall even if you are sorry,
            G       Am
While i sing oh  oh oh oh oh oh


                 F
In my sleep, nothing same
                     C
nothing according to plan
           Em                 Am
If i could be someone, without you
                     F
The same smile everyday
                   C
The sirens calling away
          Em
This mean so much more


             Am
The floating boat is carrying me
                 F
and i can live my story differently
                  C
the greedy sirens are chewing all around me
             Em            F
While i sing oh oh oh oh oh

                  Am
In my sleep, nothing same
                     C
nothing according to plan
           Em                 F
If i could be someone, without you
                     Am
The same smile everyday
                   C
The sirens calling away
             Em
This mean so much more
             Am
This mean so much more
          F            C   
The sirens calling ouh...ouh ouh
Em
ouh...ouh ouh

             Am
The floating boat is carrying me
                  F
and i can live my story differently
C
ouh ouh ouh 
            G
While i sing oh

             Am
The floating boat is carrying me
                 F
and i can live my story differently
                  C
the greedy sirens are chewing all around me
             G          
While i sing oh oh oh oh
               Am  
On the falling shoals, I wonder Why me?
                 F
On my way to the falls, I hope you see
                      C
we are heading to the wall even if you are sorry,
        G             
while I sing oh oh oh oh oh oh
     Am
oh oh oh 

Donations

Vous appreciez mon travail et voulez me soutenir ?
Vous pouvez me soutenir en faisant un don ;)



Laisser un commentaire