Tous les tutos

Simon and Garfunkel - Scarborough Fair

Posté le | Folk | 5 349 vues
Scarborough Fair – Simon and Garfunkel

Capo 7ème case

Tempo : ~120 à la noire

Intro:

  |  .  |  .  |  .   |  .  |  .  |  .   |  .  |  .  |  .     
e|---0--------------|---0--------------|-------------------|
B|------------3-----|------------3-----|---0---------------|
G|------0--------0--|------0--------0--|------0------------|
D|---------4--------|---------4--------|-------------------|
A|0-----------------|5-----------------|3-----------2------|
E|------------------|------------------|-------------------|


Couplets :


     |  .  |  .  |  .   |  .  |  .  |  .    |  .  |  .  |  .   
e||-----0--------------|---0--------------||-------------------|
B||--------------3-----|------------0-----||0--------1--0------|
G||*-------0--------0--|------2--------2-*||---0---------------|
D||*----------4--------|---------2-------*||------0--2--0------|
A||--0-----------------|0-----------------||-------------------|
E||--------------------|------------------||3------------------|


  |  .  |  .  |  .   |  .  |  .  |  .   |  .  |  .  |  .   |  .  |  .  |  .  
e|---0--------------|---0--------------|---0--------------|---0---------------|
B|------------3-----|------------0-----|------------1-----|------------0------|
G|------0--------0--|------2--------2--|------0--------0--|------2--------2---|
D|---------4--------|---------2--------|---------2--------|---------2---------|
A|0-----------------|0-----------------|3-----------------|0------------------|
E|------------------|------------------|------------------|-------------------|

 
                     
  |  .  |  .  |  .    |  .  |  .  |  .   |  .  |  .  |  .    |  .  |  .  |  .  
e|0-----2-----------||---0--------------|---0--------------||---0---------------|
B|------------3-----||------------3-----|------------0-----||-------------------|
G|---0-----2-----2--||*-----0--------0--|------2--------2-*||------2------------|
D|------0-----0-----||*--------4--------|---------2-------*||---------2---------|
A|3-----------------||0-----------------|0-----------------||0-----------0--2---|
E|------------------||------------------|------------------||-------------------|



  |  .  |  .  |  .   |  .  |  .  |  .   |  .  |  .  |  .   |  .  |  .  |  .  
e|---0--------------|0-----------------|------------------|-------------------|
B|------------1-----|------3-----1-----|0-----------1-^0--|1-----0------------|
G|------0--------0--|---0-----0-----0--|---0-----0--------|-----------(0)-----|
D|---------2--------|------------------|------0-----2-^0--|2-----0------------|
A|3-----------------|3-----2-----0-----|------------------|-------------------|
E|------------------|------------------|3-----------------|------------3------|



  |  .  |  .  |  .   |  .  |  .  |  .   |  .  |  .  |  .   
e|---0--------0-----|------------------|------------------||
B|---------------1--|0-----------1-----|0-----0^1^0-------||
G|------2-----------|---0-----0--------|------------0-----||
D|---------2--------|------0-----2-----|0-----0^2^0-------||
A|0-----------------|------------------|------------2-----||
E|------------------|3-----------------|------------------||


Outro :


     |  .  |  .  |  .   |  .  |  .  |  . 
e||-----0--------------|---0--------------||
B||--------------3-----|------------0-----||
G||*-------0--------0--|------2--------2-*||
D||*----------4--------|---------2-------*||
A||--0-----------------|0-----------------||
E||--------------------|------------------||


  |  .  |  .  |  .   |  .  |  .  |  .   |  .  |  .  |  .     
e|---0--------------|---0--------------|-------------------|
B|------------3-----|------------3-----|---0---------------|
G|------0--------0--|------0--------0--|------0------------|
D|---------4--------|---------4--------|-------------------|
A|0-----------------|5-----------------|3-----------2--0---|
E|------------------|------------------|-------------------|


Chanson : 

**Les phrases entre parenthèses sont chantées en 
Canon. Bien écouter la chanson originale pour 
comprendre.**

Couplet 1 :

Are you going to Scarborough Fair?
Parsley, sage, rosemary & thyme
Remember me to one who lives there
She once was a true love of mine

Couplet 2 :

Tell her to make me a cambric shirt
(On the side of a hill in the deep forest green)
Parsely, sage, rosemary & thyme
(Tracing a sparrow on snow-crested ground)
Without no seams nor needlework
(Blankets and bedclothes a child of the mountains)
Then she'll be a true love of mine
(Sleeps unaware of the clarion call)

Couplet 3 :

Tell her to find me an acre of land
(On the side of a hill, a sprinkling of leaves)
Parsely, sage, rosemary, & thyme
(Washed is the ground with so many tears)
Between the salt water and the sea strand
(A soldier cleans and polishes a gun)
Then she'll be a true love of mine

Couplet 4 :

Tell her to reap it in a sickle of leather
(War bellows, blazing in scarlet battalions)
Parsely, sage, rosemary & thyme
(Generals order their soldiers to kill)
And to gather it all in a bunch of heather
(And to fight for a cause they've long ago forgotten)
Then she'll be a true love of mine

Couplet 5 :

Are you going to Scarborough Fair?
Parsley, sage, rosemary & thyme
Remember me to one who lives there
She once was a true love of mine.



Laisser un commentaire