Tous les tutos

Murray head - Say it ain’t so, Joe

Posté le 21 juillet 2014 | Variété Internationale | 45 452 vues
Say it ain't so - Murray Head

Je me suis basé sur cette version pour faire la tablature :

Rythmique du morceau : B BH HBH

Accords : D/Am/Em/C/G/Bm/F#m/E/A
**************************************************

Picking Intro + Couplet :
-------------------------

   D
e||----2-----2-----2--|----2-----2------2----
B||------3-----3------|------3-----3---------
G||*------------------|----------------------
D||*-0-----0-----0----|--0-----0------0------
A||-------------------|----------------------
E||-------------------|----------------------

   Am
e|---0-----0-----0--|---0------0------0-----
B|-----1-----1------|-----1------1----------
G|------------------|-----------------------
D|-------2-----2----|-------2-------2-------
A|-0----------------|--0--------------------
E|------------------|-----------------------

   Em  
e|---0-----0-----0--|----0------0------0----
B|-----0-----0------|------0------0---------
G|------------------|-----------------------
D|-------------2----|---------------2-------
A|-------2----------|---------2-------------
E|-0----------------|--0--------------------

   C                   G
e|---0-----0-----0--|----3------3------3-----||
B|-----1-----1------|------0------0----------||
G|------------------|-----------------------*||
D|-------2-----2----|--------0-------0------*||
A|-3----------------|------------------------||
E|------------------|--3---------------------||

*****************************************************
Chanson

Intro :
-------

D  Am Em  C  G

Couplet 1 : ( Picking )
-----------

D                             Am
 Say it ain't so Joe, please, say it ain't so.
Em                                          C              G
 That's not what I wanna hear Joe, ain't I, got a right to know?
D                             Am
 Say it ain't so Joe, please, say it ain't so.
Em                                            C                G
 I'm sure they're telling us lies Joe; please tell us it ain't so.


Couplet 2 :
-----------

     D
They told us that our hero has played his trump card;
   Am
He doesn't know how to go on.
      Em
We're clinging to his charm and determined smile,
        C                  G
But the good ol' days have gone.

Interlude 1 :
-------------

D - Am - Em - C - G

Couplet 3 :  Rythmique jusqu'à la fin ( B BH HBH )
-----------

    D
The image and the Empire may be falling apart;
    Am
The money has gotten scarce,
Em
 One man's word held the country together,
        C                G
But the truth is getting fierce.
D                             Am
 Say it ain't so Joe, please, say it ain't so.
Em                                           C           G
 We pinned our hopes on you Joe and they're, ruining our show.


Interlude 2 :
-------------

D - Am - Em - C - G

Pont :
------

Bm   F#m               Em                     A
 Ooh babies, don't you think; we're gonna get burned?
Bm   F#m               Em                     C
 Ooh babies, don't you think; we're gonna get burned?
                Am                       Em
We're gonna get turned, we're gonna get learned,
                     C
Yes, we're gonna get burned.
                  Am                      Em
We're gonna get turned, we're gonna get learned,
                     C
Yes, we're gonna get burned.
                    Am                      Em
We're gonna get turned, we're gonna get learned,
                     C                       Am
Yes, we're gonna get burned, we're gonna get turned.


Couplet 4 :
-----------

E                             Bm
 Say it ain't so Joe, please, say it ain't so.
F#m                                         D              A
 That's not what I wanna hear Joe, ain't I, got a right to know?
E                             Bm
 Say it ain't so Joe, please, say it ain't so.
F#m                                         D              A
 That's not what I wanna hear Joe, ain't I, got a right to know?


Couplet 5 :
-----------

     E
They told us that our hero has played his trump card;
   Bm
He doesn't know how to go on.
      F#m
We're clinging to his charm and determined smile,
        D                  A
But the good ol' days have gone.


Interlude 3 :
-------------

E - Bm - F#m - D - A                


Couplet 6 :
-----------

    E
The image and the Empire may be falling apart;
Bm
The money has gotten scarce,
F#m
 One man's word held the country together,
        D                A
But the truth is getting fierce.
E                             Bm
 Say it ain't so Joe, please, say it ain't so.
F#m                                          D           A
 We pinned our hopes on you Joe and they're, ruining our show.

Outro :
-------

E - Bm - F#m - D - A

E                             Bm
 Say it ain't so Joe, please, say it ain't so.
F#m                                         D              A
 That's not what I wanna hear Joe, ain't I, got a right to know?

E - Bm

F#m                                         D              A
 That's not what I wanna hear Joe, ain't I, got a right to know?


Donations

Vous appreciez mon travail et voulez me soutenir ?
Vous pouvez me soutenir en faisant un don ;)



Laisser un commentaire