Tous les tutos

Grégoire - Rue des Etoiles

Posté le 8 février 2009 | Variété Française | 3 780 vues

Description


SITE : http://www.ipsacoustic.fr
COURS DE GRATTE : http://www.coursdegratte.com
FACEBOOK : http://www.facebook.com/pages/Guitare-Acoustique/2[…]7406105437

Salut ;).
Une nouvelle vidéo suite à une requête.
Tab de l'intro pour ceux que ca interesse :

e--5-----0-----7-----5
B--------------------- X2
G-----5-----5-----5---
D---------------------
A---------------------
E---------------------


e--3----0-----7------5-----3
B----0-----0-----0------0--- X2
G---------------------------
D---------------------------
A---------------------------
E---------------------------

http://fasilaguitare.free.fr
http://guitaristik.forums-actifs.com/forum.htm


@tte :D.

Donations

Vous appreciez mon travail et voulez me soutenir ?
Vous pouvez me soutenir en faisant un don ;)



Laisser un commentaire