Tous les tutos

Black M - Sur ma route

Posté le 21 juillet 2014 | R'n'B | 15 938 vues
Sur ma route - Black M

Capo 3

Em - C - G - D ( en boucle toute la chanson )

***********************************************
Rythmique simplifiée : B B HB B HBH
----------------------

Rythmique Couplets : BBB HB B HBH 
--------------------

     Em                      C
e||--0-0-0---0-x-----------------0---0-x--0---0-0-0--
B||--0-0-0---0-x-----------------1---1-x--1---1-1-1--
G||*-0-0-0---0-x-----------------0---0-x--0---0-0-0--
D||*-2-2-2---2-x--0h2p0----------2---2-x--2---2-2-2--
A||--2-2-2---2-x--------2----3-3-3---3-x--3---3-3-3--
E||--0-0-0---0-x-----------------x---x-x--x---x-x-x--

     B B B   H B             B B B   H B  B   H B H

   G                       D
e|-----3---3-x-----------------2---2-x--2---2-2-2---||
B|-----0---0-x-----------------3---3-x--3---3-3-3---||
G|-----0---0-x--0h2p0----------2---2-x--2---2-2-2--*||
D|-----0---0-x--------2----0-0-0---0-x--0---0-0-0--*||
A|-----2---2-x--------------------------------------||
E|-3-3-3---3-x--------------------------------------||

   B B B   H B             B B B   H B  B   H B H


Partie en arpège :
------------------

   Em                  C
e|-----------------------------------------
B|-------0-------------------1-------------
G|-----0-----0---0---------0-----0---0-----
D|---2---------2---------2---------2-------
A|---------------------3-------------------
E|-0---------------------------------------


   G                   D
e|---------------------------2--------------
B|-------0-----------------3-------3---3----
G|-----0-----0---0-------2-----------2------
D|---0---------0-------0--------------------
A|------------------------------------------
E|-3----------------------------------------


Riff refrain ( et derniers couplets ):
--------------------------------------

e|-------------7---8-8-8-8-8-8-8-8-7-7-7-7-7-7-7-7-5-5-5-5-5-5-5-5--
B|-8-8-8-8-8-8---8---------------------------------------------------
G|-------------------------------------------------------------------
D|-------------------------------------------------------------------
A|-------------------------------------------------------------------
E|-------------------------------------------------------------------


Couplet 1 :
-----------

Sur ma route, oui
Il y a eu du move, oui
De l'aventure dans l'movie
Une vie de roots
Sur ma route, oui
Je n'compte plus les soucis
De quoi devenir fou, oui
Une vie de roots

Couplet 2 :
-----------

Sur ma route, oui
Il y a eu du move, oui
De l'aventure dans l'movie
Une vie de roots
Sur ma route, oui
Je n'compte plus les soucis
De quoi devenir fou, oui
Une vie de roots

Refrain :
---------

Sur ma route
Sur ma route
Sur ma route
Sur ma route

Couplet 3 : ( arpège )
-----------

Sur ma route
J'ai eu des moments de doute
J'marchais sans savoir vers où
J'étais têtu rien à foutre
Sur ma route
J'avais pas de bagages en soute
Et dans ma poche pas un sous
Juste la famille entre nous

Couplet 4 (Rap): ( Refaire la rythmique )
----------------

Sur ma route il y a eu un tas de bouchons
La vérité j'ai souvent trébuché
Est-ce que tu sais que quand tu touches le fond
Il y a peu de gens chez qui tu peux te réfugier
Tu peux compter que sur tes chers parents
Parce que les amis, eux, disparaissent un par un
Oui il m'arrive d'avoir le front au sol
Parce que Dieu est grand, et on est seul, on meurt seul

Couplet 5 :
-----------

Sur ma route, oui
Il y a eu du move, oui
De l'aventure dans l'movie
Une vie de roots
Sur ma route, oui
Je n'compte plus les soucis
De quoi devenir fou, oui
Une vie de roots

Couplet 6 :
-----------

Sur ma route, oui
Il y a eu du move, oui
De l'aventure dans l'movie
Une vie de roots
Sur ma route, oui
Je n'compte plus les soucis
De quoi devenir fou, oui
Une vie de roots

Refrain :
---------

Sur ma route
Sur ma route
Sur ma route
Sur ma route

Couplet 7 : (arpège)
-----------

Sur ma route
On m'a fait des coups en douce
L'impression qu'mon cœur en souffre
Mais je suis sous anesthésie
Sur mon ch'min
J'ai croisé pas mal d'anciens
Ils me parlaient du lendemain
Et que tout allait si vite

Couplet 8 (Rap) : Refaire Rythmique
-----------------

Ne me parle pas de nostalgie
Parce que je t'avoue que mon cœur est trop fragile
Je suis comme un pirate naufragé
Oui mon équipage est plus qu'endommagé
Je sèche mes larmes, je baisse les armes
J'veux même plus savoir pourquoi ils me testent les autres
Si y a plus rien a prendre je sais qu'il me reste une chose
Et ma route elle est trop longue pas le temps de faire une pause

Couplet 9 :
-----------

Sur ma route, oui
Il y a eu du move, oui
De l'aventure dans l'movie
Une vie de roots
Sur ma route, oui
Je n'compte plus les soucis
De quoi devenir fou, oui
Une vie de roots

Couplet 10 :
------------

Sur ma route, oui
Il y a eu du move, oui
De l'aventure dans l'movie
Une vie de roots
Sur ma route, oui
Je n'compte plus les soucis
De quoi devenir fou, oui
Une vie de roots

Refrain + Pont : 
---------------

Sur ma route
Sur ma route
Sur ma route
Sur ma route
Sur ma route
Sur ma route

Couplet 11 :
------------

Sur ma route, oui
Il y a eu du move, oui
De l'aventure dans l'movie
Une vie de roots
Sur ma route, oui
Je n'compte plus les soucis
De quoi devenir fou, oui
Une vie de roots

Couplet 12:
-----------

Sur ma route, oui
Il y a eu du move, oui
De l'aventure dans l'movie
Une vie de roots
Sur ma route, oui
Je n'compte plus les soucis
De quoi devenir fou, oui
Une vie de roots

Refrain :
---------

Sur ma route
Sur ma route
Sur ma route
Sur ma route


Laisser un commentaire