Tous les tutos

Benjamin Francis Leftwich - Pictures

Posté le 2 juillet 2012 | Folk | 2 564 vues
Pictures - Benjamin Francis Leftwich


Capo: 6


Intro x 2 /Verse x 4 /Bridge

e|------------------------|------------------------|------------------------|
B|----3-----------3-------|----3-----------3-------|----3-----------3-------|
G|----------0-----------0-|----------0-----------0-|----------0-----------0-|
D|-------2----------2-----|-------0----------0-----|-------2-----------2----|
A|-3----------3-----------|-2----------2-----------|------------------------|
E|------------------------|------------------------|-0----------0-----------|

e|------------------------|
B|----3-----3-----3-------|
G|----4-----2-----0-----0-|
D|-0-----0-----0-----0----|
A|------------------------|
E|------------------------|


Chorus x2 puis x4 

e|------------------------|------------------------|------------------------|
B|----3-----------3-------|----3-----------3-------|----3-----------3-------|
G|----------2-----------2-|----------0-----------0-|----------0-----------0-|
D|-------2----------2-----|-------2----------2-----|-------2-----------2----|
A|-0----------0-----------|-3----------3-----------|------------------------|
E|------------------------|------------------------|-0----------0-----------|

e|------------------------|
B|----3-----3-----3-------|
G|----4-----2-----0-----0-|
D|-0-----0-----0-----0----|
A|------------------------|
E|------------------------|


Outro

e|------------------------|------------------------|------------------------|
B|----3-----------3-------|----3-----------3-------|----3-----------3-------|
G|----------0-----------0-|----------0-----------0-|----------0-----------0-|
D|-------2----------2-----|-------0----------0-----|-------2-----------2----|
A|-3----------3-----------|-2----------2-----------|------------------------|
E|------------------------|------------------------|-0----------0-----------|

e|------------------------|--------
B|----3-----3-----3-------|--------
G|----4-----2-----0-----0-|--------
D|-0-----0-----0-----0----|--------
A|------------------------|--3-----
E|------------------------|--------


Structure :

Intro : X2 || Couplet 1 : X4 || Couplet 2 : X4 || Refrain 1 : X2 || Pont : X1

Couplet 3 : X4 || Refrain 2 : X4 || Couplet 4 : X4

et finir sur case 3 corde de La comme indiqué sur l'outro.

Donations

Vous appreciez mon travail et voulez me soutenir ?
Vous pouvez me soutenir en faisant un don ;)



Laisser un commentaire