Tous les tutos

Keen'v - Petite Emilie

Posté le 10 mars 2015 | Variété Française | 11 016 vues
Petite Emilie - Keen'v

Capo 2

Voici l'arpège que l'on répètera tout le long du morceau.

- On répète la séquence d'accords 2 fois par couplet.

- Entre chaque couplet on fait la séquence d'accords 1 fois.


     Am                          Em
e||--------------0------------|-------------0---------------|
B||--1------1------------1----|--0------0-----------0-------|
G||*-----2-----------2--------|------0----------0-----------|
D||*---2------2----2-------2--|----2------2---2-------2-----|
A||--0-----0-----0-----0------|-----------------------------|
E||---------------------------|--0-----0----0-----0---------|

   G                          D
e|-------------3------------|-------------2----------------||
B|-0------0------------0----|-3-------3-----------3--------||
G|-----0-----------0--------|-----2-----------2-----------*||
D|---0------0----0-------0--|-0-0---0---0-0-0---0----0----*||
A|--------------------------|------------------------------||
E|-3-----3-----3-----3------|------------------------------||



Solo 1 ( Lors de la 2eme répétition de l'intro )


e|-5-7-8~--7-5-8~--7-5-7~--7-5-7~--7-5-7~--7-5-7~--7-8-5~--5---5~------|
B|-----------------------------------------------------------8---------|
G|---------------------------------------------------------------------|
D|---------------------------------------------------------------------|
A|---------------------------------------------------------------------|
E|---------------------------------------------------------------------|

Solo 2 ( A faire entre les couplets )

e|-5-7-8--7-5---3-5-7---------3-5-7--5-3--2-3-5------------------------|
B|--------------------5-5-3-5-------------------3-3-5-3----------------|
G|---------------------------------------------------------------------|
D|---------------------------------------------------------------------|
A|---------------------------------------------------------------------|
E|---------------------------------------------------------------------|

Chanson :
---------

Petite Emilie 6 ans et demi
est l'unique fille d'une famille reconstruite
une mère pour qui elle est toute sa vie
et un beau-père qui l'aime comme si elle était de lui
si gentille, si belle, des yeux qu'ensorcellent
pour ceux d'sa mère elle en était la prunelle
elle ne pouvait pas vivre l'une sans elle
leur relation était devenue plus que fusionnelle.


Petite Emilie a 8 ans passés
rien n'a changé sauf qu'elle a déménagé
fini la campagne isolée
elle vit maint'nant en ville car sa maman fut mutée
une nouvelle école, de nouveaux amis
elle ne mit pas longtemps à s'adapter à cette vie
du haut de ses 8 ans on peut dire qu'elle est ravie
car tout va pour le mieux pour Petite Emilie

Petite Emilie a 10 ans était
devenue un petite fille comblée
on peut dire que l'école lui plaisait
bonne élève pour maman, elle en était une fierté
un peu rondelette, de bonnes petites joues
elle essuie les critiques de quelques jaloux
devant les profs, ils l'appelaient "bouffe-tout"
mais ce n'sont que des enfants après tout.

Petite Emilie a 12 ans maintenant
adolescente renfermée au grand dam de maman
fini le joli visage souriant
c'est une petite fille maussade qu'elle est devenue à présent
faut dire qu'au collège tout avait changé
trop d'élèves ne faisaient que de se moquer
partout elle se sentait rejetée
tantôt frappée et tantôt injuriée

elle se demandait comme faire face
elle était devenue le souffre-douleur de la classe
sur les réseaux sociaux, ils l'appelaient "la dégueulasse"
des photos d'elle tournaient montrant son ventre qui dépasse
ne sachant pas comment faire
ni comment réagir à cet enfer
par honte et ne voulant pas affoler sa mère
Petite Emilie décida de se taire.

mais un soir de décembre
Petite Emilie rentra chez elle dénudée
ses camarades, tous ensemble
l'avaient enfermée dans le vestiaire pour la doucher
c'en était trop pour elle
trop qu'elle ne puisse encore supporter
alors elle étendit ses ailes
prit son envol vers la paix.

Donations

Vous appreciez mon travail et voulez me soutenir ?
Vous pouvez me soutenir en faisant un don ;)



Laisser un commentaire