Tous les tutos

Birdy - People help the people

Posté le 21 décembre 2011 | Pop/Folk | 7 761 vues
Birdy - People Help the people.

Capo 1

Intro

   F                         Am
e|-----------------------------------------------
B|----------------1-----------1------0-----1--0--
G|--2------0--------------0-------2----2---------
D|------3----3------------------2--------2-------
A|----3--------3---------------------------------
E|-----------------------------------------------

   F                                  
e|----------------------s12------------
B|--------------------------13--12-----
G|--2-------0----2---------------------
D|-------3----3------------------------
A|----3--------3-----------------------
E|-------------------------------------

   Am
e|-------------------s12-------
B|--1-------0----1------13--12-
G|-------2----2----------------
D|----2---------2--------------
A|-----------------------------
E|-----------------------------

Verse

F                               Am
God knows what is hiding in that weak and drunken heart
            G         Gsus4    G
I guess you kissed the girls and made them cry 
      F                      
those Hardfaced Queens of misadventure
F                                Am
God knows what is hiding in those weak and sunken eyes
  G             Gsus4   G
a Fiery throng of muted angels
       F                 
Giving love and getting nothing back


Chorus

F              Am
People help the people
            G        
And if your homesick, 
                           F
give me your hand and i'll hold it
F              Am
People help the people
                 G        
And nothing will drag you down
       Dm  C   F
Oh and if I had a brain, 
       Dm  C   F
Oh and if I had a brain
       Dm       C       F
i'd be cold as a stone and rich as the fool
     Dm               E           F         F
That turned, all those good hearts away

Verse (2)

F                                Am
God knows what is hiding, in that world of little consequence
            G      Gsus4   G
Behind the tears, inside the lies
  F               F
A thousand slowly dying sunsets
F                                Am
God knows what is hiding in those weak and drunken hearts
  G              Gsus4   G
I guess the loneliness came knocking
       F                   F
No one needs to be alone, oh save me


Chorus

F              Am
People help the people
            G        
And if your homesick, 
                           F
give me your hand and i'll hold it
F              Am
People help the people
                 G        
And nothing will drag you down
       Dm  C   F
Oh and if I had a brain, 
       Dm  C   F
Oh and if I had a brain
       Dm       C        F
i'd be cold as a stone and rich as the fool
     Dm               E           F         F
That turned, all those good hearts away


Instrumental (Solo )

F  Am  Abadd4  F
F  Am  Abadd4  F
F            Am       Abadd4      F
na naaa na na naaa


e|--------------||---------------------------------------
B|--------------||---5--8--5-8-5--8s10--8--10--8--10p8s5-
G|-----4--5--7--||.--------------------------------------
D|--7-----------||.--------------------------------------
A|--------------||---------------------------------------
E|--------------||---------------------------------------


e|--------------------------||
B|-------------5------------||
G|-7--5--7--5-----7--5-----.||
D|----------------------7--.|| X 3
A|--------------------------||
E|--------------------------||


Chorus

F              Am
People help the people
            G        
And if your homesick, 
                           F
give me your hand and i'll hold it
F              Am
People help the people
                 G        
And nothing will drag you down
       Dm  C   F
Oh and if I had a brain, 
       Dm  C   F
Oh and if I had a brain
       Dm       C       F
i'd be cold as a stone and rich as the fool
     Dm               E           F       C->F  
That turned, all those good hearts away

Donations

Vous appreciez mon travail et voulez me soutenir ?
Vous pouvez me soutenir en faisant un don ;)



Laisser un commentaire