Tous les tutos

Johnny Hallyday - Pardon

Posté le 16 novembre 2019 | Variété Française | 2 702 vues
Pardon - Johnny Hallyday

Capo 2

Rythmique
---------

Refrain : BBBBBB
sur le D5 faire BBBB(BHBH) 4fois

Intro
-----
Dm                                            Dsus2
e||------------1----------|-----------1----------|-----------0----------|-----------0h-1p-0-------|
B||---------3-----3-------|--------3-----3-------|--------3-----3-------|--------3-----------3----|
G||*-----2-----------2----|-----2-----------2----|-----2-----------2----|-----2-------------------|
D||*--0-------------------|--0-------------------|--0-------------------|--0----------------------|
A||-----------------------|----------------------|----------------------|-------------------------|
E||-----------------------|----------------------|----------------------|-------------------------|

    Em7                                           A
e|-----------0----------|-----------0----------|-----------0----------|-----------0-----------||
B|--------3-----3-------|--------3-----3-------|--------2-----2-------|--------2-----2--------||
G|-----0-----------0----|-----0-----------0----|-----2-----------2----|-----2-----------2----*||
D|--2-------------------|--2-------------------|----------------------|----------------------*||
A|----------------------|----------------------|--0-------------------|--0--------------------||
E|----------------------|----------------------|----------------------|-----------------------||

Couplet 1 ( Faire l'arpège de l'intro )
---------
Dm
Pardon
 Dsus2
Je viens vous demander
    Em7
Pardon pour tous les hommes
   A
Qui n'ont jamais appris
 Dm
Le verbe aimer
Dsus2
Qui n'ont jamais compris
 Em7
La force de l'amour
    A
La beauté de la   vie

Refrain
-------
Bb
Pardon
   E
Au nom de tous les hommes
 Gm(1)    A(1)
Qui ne savent pas aimer
Bb
Oh! Pardon
   E
Au nom de tous les hommes
 Gm(1)    A(1) 
Qui n'ont jamais aimé
 D5(4)
Oh! Pardon

Couplet 2 ( Faire l'arpège de l'intro )
---------
Dm
Pardon
   Dsus2
Je viens vous demander
    Em7
Pardon pour tous les hommes
  A
Qui ignorent le  prix
 Dm
De l'amitié
  Dsus2
Qui n'ont jamais connu
  Em7
Les larmes d'un enfant
  A
Le sourire d'une femme

Refrain
-------
Bb
Pardon
  E
Au nom de tous les hommes
 Gm(1)    A(1)
Qui ne savent pas aimer
 Bb
Oh! Pardon
 E
Au nom de tous les hommes
   Gm(1)    A(1) 
Qui n'ont jamais aimé
 D5(4)
Oh! Pardon

Pont ( Faire la rythmique 1 fois par accord )
----
Gm   Eb
Donne-moi ton regard
 Cm     F
Donne-moi ta lumière
 Bb
Donne-moi de l'amour
   Eb             A    D
Sans quoi, oui, je désespère
  Gm    Eb
Apprends-moi aimer
    Cm        F
Apprends-moi la tendresse
   Bb
Détruits mes habitudes
   Eb        A  D5(4)
Détruits ma solitude
Oh! Pardon

Couplet 3
---------
Dm                                            Dsus2
e|-----------1----------|-----------1----------|-----------0----------|-----------0h-1p-0-------|
B|--------3-----3-------|--------3-----3-------|--------3-----3-------|--------3-----------3----|
G|-----2-----------2----|-----2-----------2----|-----2-----------2----|-----2-------------------|
D|--0-------------------|--0-------------------|--0-------------------|--0----------------------|
A|----------------------|----------------------|----------------------|-------------------------|
E|----------------------|----------------------|----------------------|-------------------------|

Em7                                           A
e|-----------0----------|-----------0----------|-----------0----------|-----------0----------|
B|--------3-----3-------|--------3-----3-------|--------2-----2-------|--------2-----2-------|
G|-----0-----------0----|-----0-----------0----|-----2-----------2----|-----2-----------2----|
D|--2-------------------|--2-------------------|----------------------|----------------------|
A|----------------------|----------------------|--0-------------------|--0-------------------|
E|----------------------|----------------------|----------------------|----------------------|

Dm                                            Dsus2
e|-----------1----------|-----------1----------|-----------0----------|-----------0---------|
B|--------3-----3-------|--------3-----3-------|--------3-----3-------|--------3-----3------|
G|-----2-----------2----|-----2-----------2----|-----2-----------2----|-----2----------2----|
D|--0-------------------|--2-------------------|--3-------------------|--3------------------|
A|----------------------|----------------------|----------------------|---------------------|
E|----------------------|----------------------|----------------------|---------------------|

Em7                                           A
e|-----------0----------|-----------0----------|-----------0----------|-----------0----------||
B|--------3-----3-------|--------3-----3-------|--------2-----2-------|--------2-----2-------||
G|-----1-----------1----|-----1-----------1----|-----2-----------2----|-----2-----------2----||
D|----------------------|----------------------|----------------------|----------------------||
A|----------------------|----------------------|--0-------------------|--0-------------------||
E|--0-------------------|--0-------------------|----------------------|----------------------||

Dm
Pardon
     Dsus2
Je viens vous demander
      Em7
D'accorder votre grâce
    A
A ceux que la vie
 Dm
A blessés
Dsus2
Et lorsque le temps passe
 Em7
Ils se retrouvent nus
 A
Perdus désespérés

Refrain ( Faire la même rythmique que pour le D5 )
-------
Bb
Pardon
  E
Au nom de tous les hommes
  Gm(1)    A(1)
Qui ne savent pas aimer
 Bb
Oh! Pardon
  E
Au nom de tous les hommes
      Gm(1)    A(1) 
Qui n'ont jamais aimé
D5(4)
Oh! Pardon

Donations

Vous appreciez mon travail et voulez me soutenir ?
Vous pouvez me soutenir en faisant un don ;)



Laisser un commentaire