Tous les tutos

Metallica - Nothing else matters ( Solo )

Posté le | Solo | 7 088 vues
Nothing else matters ( Solo ) - Metallica

Backing track
Paramètres pour le son

Vous trouverez également le tuto pour l'introduction ici

Le solo commence aux alentours de 4:50

e:------------------------------------------------------------|
b:---15--------15---------------------------------------------|
g:---14b16-----14b16b14----12---14p12-11-12p11----11----------|
D:---------------------------------------------14----12-12s14-|
A:------------------------------------------------------------|
E:------------------------------------------------------------|

e:--------------------12----------12--------------------------|
b:-----------------12----------12---15p12--12-----------------|
g:-12-14p12--14b16-------14b16----------15----15-14-12--------|
D:-----------------------------------------------------14-----|
A:------------------------------------------------------------|
E:------------------------------------------------------------|

e:------------------------------------------------------------|
b:-14--14-----------------------------------------------------|
g:-14--14--13--12~--------------------------------------------|
D:------------------------------------------------------------|
A:------------------------------------------------------------|
E:------------------------------------------------------------|

e:--s15-14----s15-14--15s17--15-14h15p14s12----15-14----------|
b:---------12------------------------------12-------12~-------|
g:------------------------------------------------------------|
D:------------------------------------------------------------|
A:------------------------------------------------------------|
E:------------------------------------------------------------|

e:-------------------------------------12---------------------|
b:----------------------------------12------------------------|
g:--12-14p12--14b16b14p12----12-14----------------------------|
D:------------------------14----------------------------------|
A:------------------------------------------------------------|
E:------------------------------------------------------------|

e:------------------------------------------------------------|
b:-15--15b17b15p12--15b17b15--------12h15p12---s7--5h7p5------|
g:------------------------------------------------------------|
D:------------------------------------------------------------|
A:------------------------------------------------------------|
E:------------------------------------------------------------|

Amusez-vous bien !


Laisser un commentaire