Tous les tutos

Indochine - Nos Célébrations

Posté le 3 juin 2020 | Variété Française | 1 447 vues
Nos Célébrations - Indochine

Tempo ~125 bpm

Rythmique : 
B BH HBH
            >   >
ou encore BHBHBHBH

Quand on a 2 accords identique consécutif on peut faire par ex :
B BH HBHBHBH HBH

Capo 4

Riff **
-------
E ||---------------------------|----------------------------|
B ||-3-----0-----------0--3----|-----3-----0--------0-------|
G ||o------------2-------------|--------------2-------------|
D ||o--------------------------|----------------------------|
A ||---------------------------|----------------------------|
E ||---------------------------|----------------------------|

|----------------------------|----------------------------|-------|
|--3-----0-----------0--3----|-----3-----0--------0-------|-------|
|--------------2-------------|--------------2-------------|-------|
|----------------------------|----------------------------|--2----|
|----------------------------|----------------------------|-------|
|----------------------------|----------------------------|-------|

|----------------------------|----------------------------||---------------------------||
|----------------------------|----------------------------||--1--1-----1-----1---------||
|--0--------0----------------|--0L----------0-------------||--------------------------o||
|-----------------0--2-------|-----------------------2----||--------------------------o||
|----------------------------|----------------------------||---------------------------||
|----------------------------|----------------------------||---------------------------||

** A jouer pendant l'intro et pendant le 
second interlude lorsque on passe sur l'accord de G
 
Intro
-----
|G    |G    |D    |D    |
|Em   |Em   |C    |C    |
|G    |G    |D    |D    |
|Em   |Em   |C    |C    |
 
Couplet 1
---------
G                       G                       D   D
 Je suis comme une histoire et qui n'en finira pas
      Em                   Em                   C   C
J'archive le paradis perdu, est-c'que ça continuera ?
G                        G                          D   D
 Mais qui nous a fait croire que l'on y arriverait pas ?
    Em                      Em                          C
Je donn'rai pas cher de ma peau, je n'donnai pas cher de moi
 
Pré-refrain
-----------
C                      G    G
Est-c'que tu te souviendras ?
            D        D
Est-ce-que tu voudras ?
      Em                Em                          C
Comme hier à te laisser faire sous la lune et les chevaux
C                 Am
 Je serais ton chaos
         Em   C   G
Oh oh oh oh
 
Interlude
---------
|Am  |Em  |C    |G
 
Refrain
-------
      Am       Em
A la vie, à y croire
  C            G
A nos célébrations
          Am               Em
Sauver sa peau, sauver son nom
     C               G
A ne garder que le beau
           Am                Em
Je suis la fille, je suis le garçon
      C            G
C'est nos célébrations
         Am
Oh oh oh oh
   Em   C   G
Oh oh
 
Interlude
---------
|Am   |Em   |C    |G    |
|G    |G    |D    |D    |
|Em   |Em   |C    |C    |
 
Couplet 2
---------
G                 G                      D   D
 J'étais parti avant, tout seul mais perdant
     Em                  Em                  C   C
Le monde entier contre moi, à ne rêver que de toi
G                 G                    D    D
 Alors, j'ai décidé de ne voir que le bien
      Em                      Em                       C
Il y aura certainement quelqu'un pour m'écouter quelque part
 
Pré-refrain
-----------
C                        G  G       D      D
 Mais ils n'y arriveront pas à nous dégrader
       Em            Em                        C
Moi, je t'aimerais encore, encore et jusqu'à ma mort
C                 Am
 Je serais ton chaos
         Em   C   G
Oh oh oh oh
         Am          Em   C   G
Oh oh oh oh, oh oh oh oh
 
Refrain
-------
      Am       Em
A la vie, à y croire
  C            G
A nos célébrations
          Am               Em
Sauver sa peau, sauver son nom
     C               G
A ne garder que le beau
           Am                Em
Je suis la fille, je suis le garçon
      C            G
C'est nos célébrations
         Am
Oh oh oh oh
   Em   C   G
Oh oh
 
Interlude
---------
|Am  |Em  |C    |G    |
|Am  |Em  |C    |G
 
Refrain
-------
      Am       Em
A la vie, à y croire
  C            G
A nos célébrations
          Am               Em
Sauver sa peau, sauver son nom
     C               G
A ne garder que le beau
           Am                Em
Je suis la fille, je suis le garçon
      C            G
C'est nos célébrations
         Am
Oh oh oh oh
   Em   C   G
Oh oh
 
Outro
-----
|Am  |Em  |C    |G    |

Donations

Vous appreciez mon travail et voulez me soutenir ?
Vous pouvez me soutenir en faisant un don ;)



Laisser un commentaire