Tous les tutos

Bob Marley - No Woman No Cry ( Solo )

Posté le | Solo | 2 209 vues

Tablature du solo de No Woman No Cry

No Woman No Cry ( Solo ) - Bob Marley & The Wailers

Vous trouverez également le tuto sur la chanson ici : Tuto Chanson

Backtrack utilisé dans la démo ici : Backing Track

Commence vers 4min10 sur le backtrack

e|---------------------------------------------------13-15-11/12---------|
B|---------------------------------13-15b17~~--------------------13~~----|
G|---------------------------12-14---------------------------------------|
D|-----------10------12/14-----------------------------------------------|
A|-12---10---------------------------------------------------------------|
E|-----------------------------------------------------------------------|


e|------------------------8---8---------8------------------------------|
B|-10-8----------------8------8h10------8h10p8-------8~~~--------------|
G|-------10-------7h8h9--------------------------10--------------------|
D|----------10---------------------------------------------------------|
A|---------------------------------------------------------------------|
E|---------------------------------------------------------------------|


e|-8----------------------------8----------------------------------------|
B|-8h10~--8----10----11----10--------------------------------------------|
G|-----------------------------------8h9---------------------------------|
D|----------10----10----10---10---10-----10~-------------10-12-10-12/14~-|
A|---------------------------------------------10--10-12-----------------|
E|-----------------------------------------------------------------------|


e|----------------------------------------15-----------------------------|
B|----------13-15-13-13~--------13-15b17-----15b17r15--------------------|
G|-12-14-12---------------14-12------------------------------------------|
D|-----------------------------------------------------------------------|
A|-----------------------------------------------------------------------|
E|-----------------------------------------------------------------------|


e|-----------------------------------------------------------------------|
B|-13--13----------------------------------------------------------------|
G|-----12b14r12--------7b9r7p5----7b9r7b9~~~-7b10--7b9r7p5----5~---------|
D|-----------------------------7----------------------------7------------|
A|-----------------------------------------------------------------------|
E|-----------------------------------------------------------------------|


e|----------5------------------------5-----------------------------------|
B|--------5-----8p5-----5----------5-----8p5-----5-----------------------|
G|-7b9--------------7-----5-7b9--------------7-----5---------------------|
D|-------------------------------------------------5h7--5----------------|
A|-----------------------------------------------------------------------|
E|-----------------------------------------------------------------------|


e|-----------------------------------------------------------------------|
B|--------------------------------5h6---5h6p5---5------------------------|
G|-----------------------5~-------5-----------7---5---5------------------|
D|-------------------5-7------------------------------5h7p5--------------|
A|--7\5-3-------5-/7-----------------------------------------------------|
E|--------5-3-3----------------------------------------------------------|


e|-8---------------------------------------------------------------------|
B|-8---------------------------------------------------------------------|
G|---7b9r7~-------5---5-5~------5-------7~------------------9~-----------|
D|------------------7----------------------------------------------------|
A|--------------------------5/7-----7/8------------8---8/10--------------|
E|-----------------------------------------------------------------------|


e|-8---------------------------------12----10---8.-----------------------|
B|-8h10---p8----8-----------------------------------8h10p8~~-------------|
G|-----------10---8h9------------12-----10----9--------------------------|
D|--------------------10~------------------------------------------------|
A|-----------------------------------------------------------------------|
E|-----------------------------------------------------------------------|



Laisser un commentaire