Tous les tutos

Neil Young - Needle and the damage done

Posté le 28 août 2014 | Folk | 13 506 vues
Needle and the damage done - Neil Young


Intro / Pont / Outro :
----------------------

e|---2---0----------|-------0----------|--------0----------|-------0-----------|
B|---3---3---3---3--|---3---3---3---3--|---3----3---3---3--|---3---3----3---3--|
G|-----------2---2--|---0-------0---0--|---0--------0---0--|---0--------0---0--|
D|-0---0---0---0----|------------------|-------------------|-------------------|
A|------------------|-3---3---3---3----|-2----2---2---2----|-1---1----1---1----|
E|------------------|------------------|-------------------|-------------------|

e|------------------------------------------------------|
B|---1-----1-----1-------1-----1-----1-----1------------|
G|---0-----0--0--0--0h2--2--3--3--2--2--0--0----0-------|
D|-----0h2------------------------------------3---------|
A|-3----------------------------------------------------|
E|------------------------------------------------------|

e|---0---0---0---0--|---0---0---0----0-----|
B|---0---0---0---0--|---0---0---0----0-----|
G|-2----------------|-1--------------------|
D|-----2------------|-----2----------------|
A|---------2--------|---------2----0-------|
E|-------------0----|----------------------|


Couplets :
---------

e|---2---0----------|-------0----------|--------0----------|-------0-----------|
B|---3---3---3---3--|---3---3---3---3--|---3----3---3---3--|---3---3----3---3--|
G|-----------2---2--|---0-------0---0--|---0--------0---0--|---0--------0---0--|
D|-0---0---0---0----|------------------|-------------------|-------------------|
A|------------------|-3---3---3---3----|-2----2---2---2----|-1---1----1---1----|
E|------------------|------------------|-------------------|-------------------|

   C                     F
e|-0---0-0---0-0-(0)-----1---1-1---1-1-(0)---------|
B|-1---1-1---1-1-(0)-----1---1-1---1-1-(0)---------|
G|-0---0-0---0-0-(0)-----2---2-2---2-2-(0)---------|
D|-2---2-2---2-2-(0)-----3---3-3---3-2-(0)---------|
A|-3---3-3---3-3-(0)-----3---3-3---3-3-(0)---------|
E|-x---x-x---x-x-(0)-----x---x-x---x-x-(0)---------|
   B   B H   H B  H      B   B H   H B  H
	

e|---0---0---0---0--|---0-----0-----0----0---------|
B|---0---0---0---0--|---0-----0-----0----0---------|
G|-2----------------|------------------------------|
D|-----2------------|------------s4---s2-----------|
A|---------2--------|-----0h2----------------------|
E|-------------0----|-0----------------------------|


********************************************************************************
********************************************************************************

Chanson :

Intro
-----

Couplet 1 :
-----------

I caught you knockin'
at my cellar door
I love you, baby,
can I have some more
Ooh, ooh, the damage done.

Couplet 2 :
-----------

I hit the city and
I lost my band
I watched the needle
take another man
Gone, gone, the damage done.

Pont 
-----

Couplet 3 :
-----------

I sing the song
because I love the man
I know that some
of you don't understand
Milk-blood
to keep from running out.

Couplet 4 :
-----------

I've seen the needle
and the damage done
A little part of it in everyone
But every junkie's
like a settin' sun.

Outro
-----

Donations

Vous appreciez mon travail et voulez me soutenir ?
Vous pouvez me soutenir en faisant un don ;)



Laisser un commentaire