Tous les tutos

Pink Floyd - Mother ( Solo )

Posté le 30 octobre 2014 | Solo | 8 734 vues
Mother (Solo ) - Pink Floyd

Backing track
Paramètres pour le son

Le solo commence a 2:53 sur le backing track.

e|----------------------------------------------------------------------|
B|----13b15-13b15-13b15b13p12-13----------------------------------------|
G|-12------------------------------------------5s4-5p4------------------|
D|--------------------------------14-13-14------------------------------|
A|------------------------------------------s7---------5~--3p2h3--3b5b3-|
E|----------------------------------------------------------------------|

                                          
e|-------------------------------8---------10-12b14--12b14b12-10~--|
B|----8-10-10b12--10b12--10b12p8-----------10----------------------|
G|-s9------------------------------9p8-9~--11----------------------|
D|-----------------------------------------x-----------------------|
A|-----------------------------------------x-----------------------|
E|-----------------------------------------------------------------|


e|-8-10b12--10b12b10-8~---8p7-8p7----------------------------------|
B|-8------------------------------8--------------------------------|
G|-9--------------------------------7s5s4-------5p4-5p4-5p4--------|
D|-x--------------------------------------5-----------------5~-----|
A|-x---------------------------------------------------------------|
E|-----------------------------------------------------------------|

Enjoy ! ;)

Donations

Vous appreciez mon travail et voulez me soutenir ?
Vous pouvez me soutenir en faisant un don ;)



Laisser un commentaire