Tous les tutos

Johnny Hallyday - Marie

Posté le | Variété Française | 13 854 vues
Marie - Johnny Hallyday

Intro : 
-------

    Am                 Em
e||------------0-----------------------------||
B||------1-------1-0--------0---0h1p0---0----||
G||*---2---2--------------0---0-------0-----*||
D||*----------------------------------------*||
A||--0-------0-------------------------------||
E||---------------------0--------------------||

   Am                 Em
e|-----------0-------------------------------
B|-----1-------1-0--------0--------0---------
G|---2---2--------------0---0----0---0-------
D|-------------------------------------------
A|-0-------0---------------------------------
E|--------------------0--------0-------------

   C                  G
e|--------------------------------------------
B|-----1-------1-0--------0---0h1p0---0-------
G|---0---0---0----------0---0-------0---------
D|--------------------------------------------
A|-3-------3----------------------------------
E|--------------------3-----------------------

Couplets 1 et 2 :
-----------------

     Am                 Em
e||------------0----------------------------||
B||------1-------1-0--------0----1-0---0----||
G||*---2---2--------------0---0------0-----*||
D||*---------------------------------------*|| X2
A||--0-------0------------------------------||
E||---------------------0-------------------||

   Am                 Em
e|-----------0-------------------------------
B|-----1-------1-0--------0--------0---------
G|---2---2--------------0---0----0---0-------
D|-------------------------------------------
A|-0-------0---------------------------------
E|--------------------0--------0-------------

   C                  G
e|---------------------------------------------||
B|-----1-------1-0--------0---0h1p0---0--------||
G|---0---0---0----------0---0-------0---------*||
D|--------------------------------------------*||
A|-3-------3-----------------------------------||
E|--------------------3------------------------||

   Am
e|-----0---------------------------------------
B|----1---s5-5-3-5-3s1p0-----------------------
G|---2-------------------2-0---0h1-------------
D|--2------------------------2-----------------
A|-0-------------------------------------------
E|---------------------------------------------


Refrains : ( Rythmique B B BH )
----------

E - F ( X4 )

Puis finir sur E : B B HHB HB


Pont :
------

    Am                 Em
e||------------0----------------------------||
B||------1-------1-0--------0----1-0---0----||
G||*---2---2--------------0---0------0-----*||
D||*---------------------------------------*|| X2
A||--0-------0------------------------------||
E||---------------------0-------------------||

   Am                 Em
e|-----------0-------------------------------
B|-----1-------1-0--------0--------0---------
G|---2---2--------------0---0----0---0-------
D|-------------------------------------------
A|-0-------0---------------------------------
E|--------------------0--------0-------------

   C                  G
e|--------------------------------------------
B|-----1-------1-0--------0---0h1p0---0-------
G|---0---0---0----------0---0-------0---------
D|--------------------------------------------
A|-3-------3----------------------------------
E|--------------------3-----------------------


Couplet 3 :
-----------

     Am                 Em
e||------------0----------------------------||
B||------1-------1-0--------0----1-0---0----||
G||*---2---2--------------0---0------0-----*||
D||*---------------------------------------*|| X2
A||--0-------0------------------------------||
E||---------------------0-------------------||

   Am                 Em
e|-----------0-------------------------------
B|-----1-------1-0--------0--------0---------
G|---2---2--------------0---0----0---0-------
D|-------------------------------------------
A|-0-------0---------------------------------
E|--------------------0--------0-------------

   C                  G
e|--------------------------------------------
B|-----1-------1-0--------0---0h1p0---0-------
G|---0---0---0----------0---0-------0---------
D|--------------------------------------------
A|-3-------3----------------------------------
E|--------------------3-----------------------

     Am                 Em
e||------------0-------------------------------
B||------1-------1-0--------0--------0---------
G||*---2---2--------------0---0----0---0-------
D||*-------------------------------------------
A||--0-------0---------------------------------
E||---------------------0--------0-------------

   C                  G
e|---------------------------------------------||
B|-----1-------1-0--------0---0h1p0---0--------|| 
G|---0---0---0----------0---0-------0---------*|| X 2
D|--------------------------------------------*||
A|-3-------3-----------------------------------||
E|--------------------3------------------------||

   Am
e|-------0------
B|------1-------
G|-----1--------
D|----2---------
A|---0----------
E|-x------------

*********************************************************
*********************************************************

Chanson :
---------

**Intro**

**Couplet 1**
-------------

Am
Oh Marie
Em
si tu savais
Am          Em
Tout le mal que l'on me fait
Am
Oh Marie
Em
si je pouvais
C             G      
Dans tes bras nus me reposer


Am
Evanouie 
Em
mon innocence
Am            Em
Tu étais pour moi ma dernière chance
Am
Peu à peu
Em
Tu disparais
C             G           Am
Malgré mes efforts désespérés


**Refrain 1 **
--------------

E               F
Et rien ne sera jamais plus pareil
E               F
J'ai vu plus d'horreurs que de merveilles
E               F
Les hommes sont devenus fous à lier
E               F	
Je donnerais tout pour oublier

E
Oh oh oh oh


**Couplet 2**
--------------

Am
Oh Marie
Em
si tu savais
Am          Em
Tout le mal que l'on me fait
Am
Oh Marie
Em
si je pouvais
C             G      
Dans tes bras nus me reposer

Am
Et je cours
Em
Toute la journée
Am          Em
Sans savoir où je vais
Am
Dans le bruit
Em
Dans la fumée
C             G           Am
Je vois des ombres s'entrent tuer


**Refrain 2**
-------------

E               F
Demain ce sera le grand jour
E               F
Il faudra faire preuve de bravoure
E               F
Monter au front en première ligne
E               F
Oh Marie je t'en pris fais moi un signe
E
Oh oh oh oh

**Pont**
---------

**Refrain 3**
-------------

E               F
Allongé dans l'herbe je m'éveille
E               F
J'ai vu la mort dans son plus simple appareil
E               F
Elle m'a promis des vacances
E               F                          E
Puis la mort m'a promis sa dernière danse

**Couplet 3**
--------------

Am
Oh Marie
Em
si tu savais
Am          Em
Tout le mal que l'on m'a fait
Am
Oh Marie
Em
J'attendrais
C             G      
Qu'au ciel tu viennes me retrouver

Am
Oh Marie
Em
J'attendrais
C             G      Am
Qu'au ciel tu viennes me retrouver


Laisser un commentaire