Tous les tutos

Renaud - Manu

Posté le 21 juillet 2014 | Variété Française | 22 945 vues
Manu- Renaud

Capo 7

Intro + Interlude
------------------

1ère partie    
  
e|-------------------------------------
B|----2-3---2-0---------0--------------
G|--4--------------0--2---0------------
D|--------------------------2----------
A|--2-----2-------------------2--------
E|-----------------0-------------------
    i m m p m m    i  i m m i p 
    p              p

2ème partie

e|-----------------------------------------------0---
B|-----------------------------------------------0---
G|----0-2---0----------0-------------------------0---
D|--4----------4---2-4-------4-2--2------0-------2---
A|--2-----2-------------------------2------0-----2---
E|-----------------0-------0------0---0--2---0---0---
    i m m p m  i   i i m   p m m  m i p  m i p
    p              p              p      p

Couplet
--------

1ère partie
  
   Bm          Em             Bm           Em
e|-------2--------------------------2----------------------
B|-----3---3----------0-----------3---3-----------0--------
G|---4-------4------0---0-------4-------4-------0---0------
D|----------------2-------2-------------------2-------2----
A|-2--------------------------2----------------------------
E|--------------0---------------------------0--------------
   p i m a m i  p i m a m i   p i m a m i   p i m a m i 
 


2ème partie

   D            G            D            G
e|---------------------------------------------------------
B|-------3------------3------------3------------3----------
G|-----2---2--------0---0--------2---2--------0---0--------
D|---4-------4----0-------0----4-------4----0-------0------
A|-0------------2------------0------------2----------------
E|---------------------------------------------------------
   p i m a m i  p i m a m i  p i m a m i  p i m a m i   


3ème partie
 
   D             G             D             G
e|-------3p2-----------3p2-----------3p2-----------3p2-------
B|-----3-----3-------3-----3-------3-----3-------3-----3-----
G|---2---------2---0---------0---2---------2---0---------0---
D|-0---------------------------0-----------------------------
A|---------------2---------------------------2---------------
E|-----------------------------------------------------------
   p i m a   m i p i m a   m i p i m a   m i p i m a   m i
  

Refrain
--------
  
1ère partie

   Bm7         Em           Bm7
e|-------2------------------------2------------------------
B|-----0---0---------0----------0---0----------------------
G|---2-------2-----0---0------2-------2--------------------
D|---------------2-------2---------------------------------
A|-2------------------------2------------------------------
E|-------------0-------------------------------------------
   p i m a m i p i m a m i  p i m a m i

2ème partie

   Am            D             C             
e|------------------------------------0----------0---------
B|-------1------------0-5p3-0-----------0-------0----------
G|-----2---2-----------------------0------0----0-----------
D|---2-------2-----4-------------2------------2------------
A|-0------------s5-------------3-------------3-------------
E|---------------------------------------------------------
   p i m a m i   p i  a a   a  p i m  a m i   


------------------------------------------------------------
||||||||||||||||||||||||||||||||||||||||||||||||||||||||||||
------------------------------------------------------------

----------
Structure |
----------


Couplet 1 :
-----------

Eh Manu rentre chez t[Bm]oi
Y'a des larmes pleins ta bi[Em]ère
Le bistrot va ferm[Bm]er
Pis tu gonfles la tauliè[Em]re
J'croyais qu'un mec en c[D]uir
Ca pouvait pa chia[G]ler
J'pensais même que souf[D]frir
Ca pouvait pas t'arri[G]ver
J'oubliais tes tatou[D]ages
Et ta lame de cout[G]eau
C'est surtout un blind[D]age
Pour ton coeur d'artich[G]aut

Refrain 1 :
-----------

Hé déconne pas Manu[Bm]
Va pas t'tailler les vei[Em]nes
Une gonzesse de perd[Bm]ue
C'est dix copains qui r'viennent 


Couplet 2 :
-----------

On était tous maqués
Quand toi t'étais tout seul
Tu disais j'me fais chier
Et j'voudrer sauver ma gueule
T'as croisé cette nana
Qu'était faite pour personne
T'as dit elle est pour moi
Ou alors y'a maldonne
T'as été un peu vite
Pour t'tatouer son prénom
A l'endroit où palpite
Ton grand coeur de grand con


Refrain 2 :
-----------

Eh déconne pas Manu
C't'à moi qu'tu fais d'la peine
Une gonzesse de perdue
C'est dix copains qui r'viennent


Interlude ( Idem que l'intro ):
-------------------------------

1ère partie    
           
e|-------------------------------------
B|----2-3---2-0---------0--------------
G|--4--------------0--2------0---------
D|-----------------------------2-------
A|--2-----2----------------------2-----
E|-----------------0-------------------


2ème partie

e|-----------------------------------------------0---
B|-----------------------------------------------0---
G|----0-2---0----------0-------------------------0---
D|--4----------4---2-4-------4-2--2------0-------2---
A|--2-----2-------------------------2------0-----2---
E|-----------------0-------0------0---0--2---0---0---

Couplet 3 :
-----------

J'vais dire on est des loups
On est fait pour vivre en bande
Mais surtout pas en couple
Ou alors pas longtemps
Nous autres ça fait un bail
Qu'on a largué nos p'tites
Toi t'es toujours en rade
Avec la tienne et tu flippes
Eh Manu vivre libre
C'est souvent vivre seul
Ca fait p't'être mal au bide
Mais c'est bon pour la gueule

Refrain 3 :
-----------

Eh déconne pas Manu
Ca sert à rien la haine
Une gonzesse de perdue
C'est dix copains qui r'viennent

Couplet 4 :
-----------

Elle est plus amoureuse
Manu faut qu'tu t'arraches
Elle peut pas être heureuse
Dans les bras d'un apache
Quand tu lui dis je t'aime
Si elle te d'mande du feu
Si elle a la migraine
Dès qu'elle est dans ton pieu
Dis lui qu't'es désolé
Qu't'as dû t'gourrer d'trottoir
Quand tu l'as rencontrée
T'as dû t'tromper d'histoire

Refrain 4 :
------------

Eh déconne pas Manu
Va pas t'tailler les veines
Une gonzesse de perdue
C'est dix copains qui r'viennent

Eh déconne pas Manu
Ca sert à rien la haine
Une gonzesse de perdue
C'est dix copains qui r'viennent

Eh déconne pas Manu
C't'à moi qu'tu fais d'la peine
Une gonzesse de perdue
C'est dix copains qui r'viennent

Eh déconne pas Manu ,allez, déconne pas...
Manu... 


Pour le refrain 4 répéter ca 4 fois pour finir la chanson
---------------------------------------------------------

  
     Bm7         Em           Bm7          Em
e||--------2------------------------2--------------------||
B||------0---0---------0----------0---0----------0-------||
G||*---2-------2-----0---0------2-------2------0---0----*|| X4
D||*---------------2-------2-----------------2-------2--*||
A||--2------------------------2--------------------------||
E||--------------0-------------------------0-------------||

Donations

Vous appreciez mon travail et voulez me soutenir ?
Vous pouvez me soutenir en faisant un don ;)



Laisser un commentaire