Tous les tutos

Louane - Maman

Posté le 4 mars 2015 | Variété Française | 15 417 vues
Maman - Louane

Accords :

Am / G / Dsus2 / F / Em / C

Capo 3

Couplets

     Am           G            Dsus2         G
e||--0------------------------------------------------------|
B||---------1-----3------3-----3-------3-----0------0-------|
G||*-----2------------0-------------2------------0----------|
D||*---2------2-----0------0---0--0------0-----0------0-----|
A||--0------------------------------------------------------|
E||---------------3--------------------------3--------------|

   F            Em           Am           Am
e|----------------------------------------0-----------------||
B|-1------1-----0------0-----1------1-------------1---------||
G|-----2------------0------------2-------------2-----------*||
D|---3------3-----2------2-----2------2------2------2------*|| X 2
A|---------------------------0------------0-----------------||
E|-1------------0-------------------------------------------||

Pré-Refrains

     F            G            C            F
e||--1-------------------------0-----------------------------|
B||---------1-----3------3------------1-----1-------1--------|
G||*-----2------------4------------0-------------2-----------|
D||*---3------3-----5------5-----2------2------3------3------|
A||----------------------------3-----------------------------|
E||--1------------3-------------------------1----------------|

   F             Em            Am            Am
e|-------------------------------------------0---------------||
B|-1------1------0------0------1------1-------------1--------||
G|-----2-------------0-------------2--------------2---------*|| 
D|---3------3------2------2------2-------2------2------2----*|| X2
A|-----------------------------0-------------0---------------||
E|-1-------------0-------------------------------------------||


Refrains 

     F            G            C             C
e||--1-------------------------0-------------0----------------|
B||---------1-----3------3------------1--------------1--------|
G||*-----2------------4------------0-------------0------------|
D||*---3------3-----5------5-----2------2------2-------2------|
A||----------------------------3-------------3----------------|
E||--1------------3-------------------------------------------|

     F            Em           Am            Am
e||------------------------------------------0----------------||
B||--1-------1----0------0-----0------1--------------1--------||
G||------2------------0------------2-------------2-----------*||
D||----3------3-----2------0-----2------2------2-------2-----*|| X 2
A||----------------------------0-------------0----------------||
E||--1------------0-------------------------------------------||


** CHANSON **

Couplet 1  
---------
Am                    G      Dsus2  G
Les amants passent de lit en lit 
F          Em                 Am    Am
 Dans les hôtels, sur les parkings 
Am                     G     Dsus2  G
Pour fuir tout cette mélancolie 
F            Em                Am    Am
Le coeur des villes a mauvaise mine 

Pré refrain
-----------
             F                   G
Des coups de blues, des coups de fil, 
          C              F
Tout recommencera au printemps
     F            Em  Am     Am
Sauf les amours indélébiles. 

              F                  G
Les rêves s’entassent dans les métros,
                 C                 F 
Les grattes-ciel nous regardent de haut
      F              Em      Am      Am
Comme un oiseau sous les barreaux. 

Refrain
-------
       F                G       C    C
J'suis pas bien dans ma tête, maman.
           F             Em       Am  Am
J’ai perdu le gout de la fête, maman.
        F                  G        C    C
Regarde comme ta fille est faite, maman.
         F               Em       Am  Am
J'trouve pas d'sens à ma quête maman. 


Couplet 2 
---------

A l’heure où les bars se remplissent, 
Cette même heure où les cœurs se vident. 
Ces nuits où les promesses se tissent, 
Aussi vite qu’elles se dilapident. 

Pré-Refrain
------------

Des coups de blues, des coups de fil, 
Tout recommencera au printemps 
Sauf les amours indélébiles. 

Les rêves s’entassent dans les métros, 
Les grattes-ciel nous regardent de haut 
Comme un oiseau sous les barreaux. 

Refrain 
-------

J'suis pas bien dans ma tête, maman. 
J'ai perdu le gout de la fête, maman. 
Regarde comme ta fille est faite, maman. 
J'trouve pas d'sens à ma quête maman. 
Regarde comme ta fille est faite, maman. 
J'trouve pas d'sens a ma quête, maman.

Donations

Vous appreciez mon travail et voulez me soutenir ?
Vous pouvez me soutenir en faisant un don ;)



Laisser un commentaire