Tous les tutos

Suzanne Vega - Luka

Posté le 21 juillet 2014 | Folk | 2 791 vues
Luka - Suzanne Vega

Capo 2

Intro
------

  E                 Bsus4           Asus2             Bsus4
E ----------------|--------0-------|--------0-------|--------0-------|
B ----------------|----0-----0-----|----0-----0-----|----0-----0-----|
G ----1-----1-----|----4-----------|2---------------|----4-----------|
D ----2-----2-----|----4-----------|----2-----------|----4-----------|
A ----2-----2-----|--2-------------|0---------------|--2-------------|
E 0---------------|----------------|----------------|----------------|
  ^ . ^ . ^ . ^ .  ^ . ^ . ^ . ^ .  ^ . ^ . ^ . ^ .  ^ . ^ . ^ . ^ .

  C#m7             Bsus4            C#m7             Bsus4
E ----0-------0---|----0-------0---|----0-------0---|----0-------0---|
B ------0-------0-|--0---0---0---0-|------0-------0-|--0---0---0---0-|
G 0---------------|--4-------4-----|0---------------|--4-------4-----|
D --6-------6-----|--4-------4-----|--6-------6-----|--4-------4-----|
A 4-------4-------|2-------2-------|4-------4-------|2-------2-------|
E ----------------|----------------|----------------|----------------|
  ^ . ^ . ^ . ^ .  ^ . ^ . ^ . ^ .  ^ . ^ . ^ . ^ .  ^ . ^ . ^ . ^ .

  Asus2            Bsus4            Asus2            Bsus4
E ------------0---|----0-------0---|------------0---|-----0-------0---|
B ----0-----0---0-|--0---0---0---0-|----0-----0---0-|---0---0---0---0-|
G ----2-----2-----|--4-------4-----|----2-----2-----|---4-------4-----|
D ----2-----2-----|--4-------4-----|----2-----2-----|---4-------4-----|
A 0---------------|2-------2-------|0---------------|-2-------2-------|
E ----------------|----------------|----------------|-----------------|
  ^ . ^ . ^ . ^ .  ^ . ^ . ^ . ^ .  ^ . ^ . ^ . ^ .  ^ . ^ . ^ . ^ .


Couplet 1
----------

     E                 Bsus4           Asus2             Bsus4
E ||-----------------|--------0-------|--------0-------|--------0--------||
B ||-----------------|----0-----0-----|----0-----0-----|----0-----0------||
G ||*----1-----1-----|----4-----------|2---------------|----4-----------*||
D ||*----2-----2-----|----4-----------|----2-----------|----4-----------*||
A ||-----2-----2-----|--2-------------|0---------------|--2--------------||
E ||-0---------------|----------------|----------------|-----------------||
     ^ . ^ . ^ . ^ .  ^ . ^ . ^ . ^ .  ^ . ^ . ^ . ^ .  ^ . ^ . ^ . ^ .
           My name is Luka                     I live on the second floor
          I live upstairs from you           Yes I think you've seen me before


  C#m7             Bsus4            C#m7             Bsus4
E ----0-------0---|----0-------0---|----0-------0---|----0-------0---|
B ------0-------0-|--0---0---0---0-|------0-------0-|--0---0---0---0-|
G 0---------------|--4-------4-----|0---------------|--4-------4-----|
D --6-------6-----|--4-------4-----|--6-------6-----|--4-------4-----|
A 4-------4-------|2-------2-------|4-------4-------|2-------2-------|
E ----------------|----------------|----------------|----------------|
  ^ . ^ . ^ . ^ .  ^ . ^ . ^ . ^ .  ^ . ^ . ^ . ^ .  ^ . ^ . ^ . ^ .
     If you hear something late at night   Some kind of trouble, some kind of fight


  Asus2            Bsus4            Asus2            Bsus4
E ------------0---|----0-------0---|------------0---|-----0-------0---|
B ----0-----0---0-|--0---0---0---0-|----0-----0---0-|---0---0---0---0-|
G ----2-----2-----|--4-------4-----|----2-----2-----|---4-------4-----|
D ----2-----2-----|--4-------4-----|----2-----2-----|---4-------4-----|
A 0---------------|2-------2-------|0---------------|-2-------2-------|
E ----------------|----------------|----------------|-----------------|
  ^ . ^ . ^ . ^ .  ^ . ^ . ^ . ^ .  ^ . ^ . ^ . ^ .  ^ . ^ . ^ . ^ .
       Just don't ask me what it was      Just don't ask me what it was


  Asus2            Bsus4            
E ------------0---|----0-------0---|
B ----0-----0---0-|--0---0---0---0-|
G ----2-----2-----|--4-------4-----|
D ----2-----2-----|--4-------4-----|
A 0---------------|2-------2-------|
E ----------------|----------------|
  ^ . ^ . ^ . ^ .  ^ . ^ . ^ . ^ .  
        Just don't ask me what it was



Couplet 2 ( Pareil que le 1er couplet )
----------------------------------------


     E                 Bsus4           Asus2             Bsus4
E ||-----------------|--------0-------|--------0-------|--------0--------||
B ||-----------------|----0-----0-----|----0-----0-----|----0-----0------||
G ||*----1-----1-----|----4-----------|2---------------|----4-----------*||
D ||*----2-----2-----|----4-----------|----2-----------|----4-----------*||
A ||-----2-----2-----|--2-------------|0---------------|--2--------------||
E ||-0---------------|----------------|----------------|-----------------||
     ^ . ^ . ^ . ^ .  ^ . ^ . ^ . ^ .  ^ . ^ . ^ . ^ .  ^ . ^ . ^ . ^ .
           I think it's because I'm clumsy     I try not to talk too loud
           Maybe it's because I'm crazy        I try not to act too proud


  C#m7             Bsus4            C#m7             Bsus4
E ----0-------0---|----0-------0---|----0-------0---|----0-------0---|
B ------0-------0-|--0---0---0---0-|------0-------0-|--0---0---0---0-|
G 0---------------|--4-------4-----|0---------------|--4-------4-----|
D --6-------6-----|--4-------4-----|--6-------6-----|--4-------4-----|
A 4-------4-------|2-------2-------|4-------4-------|2-------2-------|
E ----------------|----------------|----------------|----------------|
  ^ . ^ . ^ . ^ .  ^ . ^ . ^ . ^ .  ^ . ^ . ^ . ^ .  ^ . ^ . ^ . ^ .
       They only hit you until you cry   And after that you don't ask why


  Asus2            Bsus4            Asus2            Bsus4
E ------------0---|----0-------0---|------------0---|-----0-------0---|
B ----0-----0---0-|--0---0---0---0-|----0-----0---0-|---0---0---0---0-|
G ----2-----2-----|--4-------4-----|----2-----2-----|---4-------4-----|
D ----2-----2-----|--4-------4-----|----2-----2-----|---4-------4-----|
A 0---------------|2-------2-------|0---------------|-2-------2-------|
E ----------------|----------------|----------------|-----------------|
  ^ . ^ . ^ . ^ .  ^ . ^ . ^ . ^ .  ^ . ^ . ^ . ^ .  ^ . ^ . ^ . ^ .
        You just don't argue anymore      You just don't argue anymore

 
  Asus2            Bsus4            
E ------------0---|----0-------0---|
B ----0-----0---0-|--0---0---0---0-|
G ----2-----2-----|--4-------4-----|
D ----2-----2-----|--4-------4-----|
A 0---------------|2-------2-------|
E ----------------|----------------|
  ^ . ^ . ^ . ^ .  ^ . ^ . ^ . ^ .  
        You just don't argue anymore


Interlude
---------

  E                 Bsus4           Asus2             Bsus4
E ----------------|--------0-------|--------0-------|--------0-------|
B ----------------|----0-----0-----|----0-----0-----|----0-----0-----|
G ----1-----1-----|----4-----------|2---------------|----4-----------|
D ----2-----2-----|----4-----------|----2-----------|----4-----------|
A ----2-----2-----|--2-------------|0---------------|--2-------------|
E 0---------------|----------------|----------------|----------------|
  ^ . ^ . ^ . ^ .  ^ . ^ . ^ . ^ .  ^ . ^ . ^ . ^ .  ^ . ^ . ^ . ^ .


Couplet 3 ( Pareil que le 1er couplet )
----------------------------------------

     E                 Bsus4           Asus2             Bsus4
E ||-----------------|--------0-------|--------0-------|--------0--------||
B ||-----------------|----0-----0-----|----0-----0-----|----0-----0------||
G ||*----1-----1-----|----4-----------|2---------------|----4-----------*||
D ||*----2-----2-----|----4-----------|----2-----------|----4-----------*||
A ||-----2-----2-----|--2-------------|0---------------|--2--------------||
E ||-0---------------|----------------|----------------|-----------------||
     ^ . ^ . ^ . ^ .  ^ . ^ . ^ . ^ .  ^ . ^ . ^ . ^ .  ^ . ^ . ^ . ^ .
           Yes I think I'm OK                  I walked into the door again
        Well, if you ask that's what I'll say  And it's not your business anyway


  C#m7             Bsus4            C#m7             Bsus4
E ----0-------0---|----0-------0---|----0-------0---|----0-------0---|
B ------0-------0-|--0---0---0---0-|------0-------0-|--0---0---0---0-|
G 0---------------|--4-------4-----|0---------------|--4-------4-----|
D --6-------6-----|--4-------4-----|--6-------6-----|--4-------4-----|
A 4-------4-------|2-------2-------|4-------4-------|2-------2-------|
E ----------------|----------------|----------------|----------------|
  ^ . ^ . ^ . ^ .  ^ . ^ . ^ . ^ .  ^ . ^ . ^ . ^ .  ^ . ^ . ^ . ^ .
      I guess I'd like to be alone        With nothing broken, nothing thrown


  Asus2            Bsus4            Asus2            Bsus4
E ------------0---|----0-------0---|------------0---|-----0-------0---|
B ----0-----0---0-|--0---0---0---0-|----0-----0---0-|---0---0---0---0-|
G ----2-----2-----|--4-------4-----|----2-----2-----|---4-------4-----|
D ----2-----2-----|--4-------4-----|----2-----2-----|---4-------4-----|
A 0---------------|2-------2-------|0---------------|-2-------2-------|
E ----------------|----------------|----------------|-----------------|
  ^ . ^ . ^ . ^ .  ^ . ^ . ^ . ^ .  ^ . ^ . ^ . ^ .  ^ . ^ . ^ . ^ .
        Just don't ask me how I am        Just don't ask me how I am


  Asus2            Bsus4            
E ------------0---|----0-------0---|
B ----0-----0---0-|--0---0---0---0-|
G ----2-----2-----|--4-------4-----|
D ----2-----2-----|--4-------4-----|
A 0---------------|2-------2-------|
E ----------------|----------------|
  ^ . ^ . ^ . ^ .  ^ . ^ . ^ . ^ .  
       Just don't ask me how I am


Couplet 4
---------

     E                 Bsus4           Asus2             Bsus4
E ||-----------------|--------0-------|--------0-------|--------0--------||
B ||-----------------|----0-----0-----|----0-----0-----|----0-----0------||
G ||*----1-----1-----|----4-----------|2---------------|----4-----------*||
D ||*----2-----2-----|----4-----------|----2-----------|----4-----------*||
A ||-----2-----2-----|--2-------------|0---------------|--2--------------||
E ||-0---------------|----------------|----------------|-----------------||
     ^ . ^ . ^ . ^ .  ^ . ^ . ^ . ^ .  ^ . ^ . ^ . ^ .  ^ . ^ . ^ . ^ .
           My name is Luka                     I live on the second floor
           I live upstairs from you            Yes I think you've seen me before


  C#m7             Bsus4            C#m7             Bsus4
E ----0-------0---|----0-------0---|----0-------0---|----0-------0---|
B ------0-------0-|--0---0---0---0-|------0-------0-|--0---0---0---0-|
G 0---------------|--4-------4-----|0---------------|--4-------4-----|
D --6-------6-----|--4-------4-----|--6-------6-----|--4-------4-----|
A 4-------4-------|2-------2-------|4-------4-------|2-------2-------|
E ----------------|----------------|----------------|----------------|
  ^ . ^ . ^ . ^ .  ^ . ^ . ^ . ^ .  ^ . ^ . ^ . ^ .  ^ . ^ . ^ . ^ .
   If you hear something late at night   Some kind of trouble, some kind of fight


  Asus2            Bsus4            Asus2             Bsus4
E ------------0---|----0-------0---|------------0---|-----0-------0---|
B ----0-----0---0-|--0---0---0---0-|----0-----0---0-|---0---0---0---0-|
G ----2-----2-----|--4-------4-----|----2-----2-----|---4-------4-----|
D ----2-----2-----|--4-------4-----|----2-----2-----|---4-------4-----|
A 0---------------|2-------2-------|0---------------|-2-------2-------|
E ----------------|----------------|----------------|-----------------|
  ^ . ^ . ^ . ^ .  ^ . ^ . ^ . ^ .  ^ . ^ . ^ . ^ .  ^ . ^ . ^ . ^ .
        Just don't ask me what it was     Just don't ask me what it was


  Asus2            Bsus4            
E ------------0---|----0-------0---|
B ----0-----0---0-|--0---0---0---0-|
G ----2-----2-----|--4-------4-----|
D ----2-----2-----|--4-------4-----|
A 0---------------|2-------2-------|
E ----------------|----------------|
  ^ . ^ . ^ . ^ .  ^ . ^ . ^ . ^ .  
         Just don't ask me what it was


  C#m7             Bsus4            C#m7             Bsus4
E ----0-------0---|----0-------0---|----0-------0---|----0-------0---|
B ------0-------0-|--0---0---0---0-|------0-------0-|--0---0---0---0-|
G 0---------------|--4-------4-----|0---------------|--4-------4-----|
D --6-------6-----|--4-------4-----|--6-------6-----|--4-------4-----|
A 4-------4-------|2-------2-------|4-------4-------|2-------2-------|
E ----------------|----------------|----------------|----------------|
  ^ . ^ . ^ . ^ .  ^ . ^ . ^ . ^ .  ^ . ^ . ^ . ^ .  ^ . ^ . ^ . ^ .
       They only hit you until you cry     And after that you don't ask why


  Asus2            Bsus4            Asus2            Bsus4
E ------------0---|----0-------0---|------------0---|-----0-------0---|
B ----0-----0---0-|--0---0---0---0-|----0-----0---0-|---0---0---0---0-|
G ----2-----2-----|--4-------4-----|----2-----2-----|---4-------4-----|
D ----2-----2-----|--4-------4-----|----2-----2-----|---4-------4-----|
A 0---------------|2-------2-------|0---------------|-2-------2-------|
E ----------------|----------------|----------------|-----------------|
  ^ . ^ . ^ . ^ .  ^ . ^ . ^ . ^ .  ^ . ^ . ^ . ^ .  ^ . ^ . ^ . ^ .
        You just don't argue anymore      You just don't argue anymore



  Asus2            Bsus4            
E ------------0---|----0-------0---|
B ----0-----0---0-|--0---0---0---0-|
G ----2-----2-----|--4-------4-----|
D ----2-----2-----|--4-------4-----|
A 0---------------|2-------2-------|
E ----------------|----------------|
  ^ . ^ . ^ . ^ .  ^ . ^ . ^ . ^ .  
        You just don't argue anymore


Outro
-----

  E                 Bsus4           Asus2             Bsus4             E
E ----------------|--------0-------|--------0-------|--------0-------|--0--
B ----------------|----0-----0-----|----0-----0-----|----0-----0-----|--0--
G ----1-----1-----|----4-----------|2---------------|----4-----------|--1--
D ----2-----2-----|----4-----------|----2-----------|----4-----------|--2--
A ----2-----2-----|--2-------------|0---------------|--2-------------|--2--
E 0---------------|----------------|----------------|----------------|--0--
  ^ . ^ . ^ . ^ .  ^ . ^ . ^ . ^ .  ^ . ^ . ^ . ^ .  ^ . ^ . ^ . ^ .




Laisser un commentaire