Tous les tutos

Justin Bieber - Love Yourself

Posté le 12 avril 2016 | Pop | 2 182 vues

Tablature de la chanson Love Yourself de Justin Bieber

Love Yourself - Justin Bieber

Ps : Si la démo sur youtube est bloquée, voici le lien sur dailymotion : Love Yourself

Couplets

   E        D#m     C#m
E|------------------------------------------|
B|-7h9-9-x--7--7-x--5--5-x--x---------------|
G|-------x-------x-------x--x---------------|
D|-------x-------x-------x--x---------------|
A|-7-----x--6----x--4----x--x---------------|
E|------------------------------------------|

   F#m       E       D#m
E|------------------------------------------|
B|-10--10-x--9--9-x--7--7-x-----------------|
G|--------x-------x-------x-----------------|
D|--------x-------x-------x-----------------|
A|-9------x--7----x--6----x-----------------|
E|------------------------------------------|

Couplet 1 :
-----------
             E
For all the times
          D#m          C#m
That you rain on my parade
              F#m
And all the clubs you get in 
E           D#m
Using my name
                E
You think you broke my heart
    D#m               C#m
Oh girl for goodness sake
                F#m
You think I'm crying
      E           C#m
Oh my own, well I ain't
                     E          D#m
And I didn't wanna write a song 
                      C#m
Cause I didn't want anyone thinking

I still care
   F#m        E                 D#m
I don't but, you still hit my phone up
               E        D#m
And baby I be movin' on 
                  C#m
And I think you should be somethin'
               F#m
I don't wanna hold back
 E                 D#m
Maybe you should know that


Pre-refrains :
-------------

   C#5     A     E5
E|------------------------------------------|
B|------------------------------------------|
G|-6--6-x--2--x--1-1--x--1--x---------------| X 2
D|-6--6-x--2--x--2-2--x--2--x---------------|
A|-4--4-x--0--x--2-2--x--2--x---------------|
E|---------------0-0--x--0--x---------------|

   C#5     A       E5     B5
E|------------------------------------------|
B|------------------------------------------|
G|-6--6-x--2-2-x---1-1----4-4-x-------------|
D|-6--6-x--2-2-x---2-2-x--4-4-x-------------|
A|-4--4-x--0-0-x---2-2-x--2-2-x-------------|
E|-----------------0---x--------------------|

   C#5     A        B5
E|------------------------------------------|
B|------------------------------------------|
G|-6--6-x--2-2-x----4-4-4-4-4---------------|
D|-6--6-x--2-2-x----4-4-4-4-4---------------|
A|-4--4-x--0-0-x----2-2-2-2-2---------------|
E|------------------------------------------|

               C#5
My mama don't like you
A                  E5
And she likes everyone
             C#5    A
And I never like to admit 
             E5
That I was wrong
                  C#5             A
And I've been so caught up in my job
        E5          B5
Didn't see what's going on
            C#5  A
And now I know
             B5
I'm better sleeping on my own

Refrains :
----------

   E    B5     C#m       A
E|------------------------------------------|
B|------------------------------------------|
G|-1----4-4-x---6-6-x----2--2--x------------|
D|-2-x--4-4-x---6-6-x----2--2--x------------|
A|-2-x--2-2-x---4-4-x----0--0--x------------|
E|-0-x--------------------------------------|

   E       A       E
E|------------------------------------------|
B|------------------------------------------|
G|-1-------2-x-----1-x----------------------|
D|-2-x-----2-x-----2-x---x------------------|
A|-2-x-----0-x-----2-x---x------------------|
E|-0-x-------------0-x---x------------------|


              E
Cause if you like 
        B5      C#m
The way    you look that much
A        E                   A          E
Oh baby you should go and love yourself
                          B5
And if you think that I'm 
       C#m        A
Still holdin' on to somethin'
 E                   A         E
You should go and love yourself


Couplet 2 :
-----------
              E
But when you told me that
     D#m       C#m
You hated my friends
           F#m             E
The only problem was with you 
             D#m
And not them
           E
And every time you told me 
 D#m             C#m
My opinion was wrong
              F#m
And tried to make me forget 
  E            D#m
Where I came from

                     E          D#m
And I didn't wanna write a song 
                      C#m
Cause I didn't want anyone thinking

I still care
   F#m        E                 D#m
I don't but, you still hit my phone up
               E        D#m
And baby I be movin' on 
                  C#m
And I think you should be somethin'
               F#m
I don't wanna hold back
 E                 D#m
Maybe you should know that


Pre-refrain 2 :
---------------
               C#5
My mama don't like you
A                  E5
And she likes everyone
             C#5    A
And I never like to admit 
             E5
That I was wrong
                  C#5             A
And I've been so caught up in my job
        E5          B5
Didn't see what's going on
            C#5  A
And now I know
             B5
I'm better sleeping on my own


Refrain :
---------
              E
Cause if you like 
        B5      C#m
The way    you look that much
A        E                   A         E
Oh baby you should go and love yourself
                          B5
And if you think that I'm 
       C#m        A
Still holdin' on to somethin'
 E                   A         E
You should go and love yourself

Solo: (Même accords que pour le refrain)
-----

E|-7-4-7-4--------7-4-7-4------4--7-4-7-4------5-4------|
B|---------7-5-5-----------7-5-------------7-5-----7-5--|
G|------------------------------------------------------|
D|------------------------------------------------------|
A|------------------------------------------------------|
E|------------------------------------------------------|


Couplet 3 :
-----------
             E
For all the times that 
     D#m           C#m
You made me feel small
           F#m
I fell in love
            E         D#m
Now I fear nothin' at all
         E
I never felt so low 
     D#m            C#m
When I was vulnerable
         F#m
Was I a fool to let you
  E            D#m
Break down my walls

Refrain :
---------
              E
Cause if you like 
        B5      C#m
The way    you look that much
A        E                   A         E
Oh baby you should go and love yourself
                          B5
And if you think that I'm 
       C#m        A
Still holdin' on to somethin'
 E                   A         E
You should go and love yourself
              E
Cause if you like 
        B5      C#m
The way    you look that much
A        E                  A          E
Oh baby you should go and love yourself
                          B5
And if you think that I'm 
       C#m        A
Still holdin' on to somethin'
 E                   A         E
You should go and love yourself


Laisser un commentaire