Tous les tutos

Monday Morning - Lost Source Of Light

Posté le 8 avril 2011 | Folk | 1 252 vues

Description


SITE : http://www.ipsacoustic.fr
COURS DE GRATTE : http://www.coursdegratte.com
FACEBOOK : http://www.facebook.com/pages/Guitare-Acoustique/2[…]7406105437

Salut à tous !! :D Voila donc, une chanson d'un groupe que j'ai découvert il y a quelques tps et vu que j'aime bien ce qu'il font, autant essayer de vous les faire découvrir si vous les connaissez pas déjà :).

Donc pour la chanson originale sur youtube faut aller par la : http://www.youtube.com/watch?v=b8LSiM6yKVg

Leur site est par la : http://mondaymorning.be/
Leur page Facebook ici : http://www.facebook.com/mondaymorningtrip
Leur myspace : http://www.myspace.com/mondaymorningtrip
Et leur Twitter ( ouf :p ) : http://www.twitter.com/MondayMorningBE

Alors sinon pour la partoch, la voici :


Tab intro + Pont + Couplet 3

G

e-----3-----------------------3----------------------------------
B-----3----------3-----------------3----------3---------------0--
G-----0--------------0------------------------------0------------
D-----0------------------0---------------------------------------
A-----2----------------------------------------------------------
E-----3------3--------------------------3----------------3-------


C

e----------------0----------------------------------
B-----0h1-----------------------1--------------1----
G-------0------------------0-----------------------0
D-------2------------0h2-------------0h2------------
A-------3----3-----------------------------3--------
E-------0------------------------------------------- -
-
Em ----------- X2
-
e------0--------------------3--------3p0---------------- -
B------0--------0---------------0-----------0-----------
G------0------------0-----------------------------0-----
D------2----------------2------------------------------2
A------2------------------------------------------------
E------0----0------------------------0------------------

D

e---------2-----------2------------2h3------------3p2------------------
B------------3--------3----3-------3----2---------------3--------------
G----------------2----2--------2---2---------3---------------2--------2
D-----2-------------------------------------------0---------------0----
A----------------------------------------------------------------------
E----------------------------------------------------------------------


Monday Morning -- "Lost Source Of Light"

Capo 3

1. Would you recognize me G C
With a whisper of "I love you" ? Em D
Would you still believe me
If I say I'm still thinking of you ?

Refrain:
I remember when I touched your hair, G D
I was brought back to life, Em C D
You were my little Enchanter,
What a pretty example of a source of Light.

2. Never affirm my heart is a fist of rock !
You lived there through my feelings,
You should understand the way you mock.
If I'm crazy, it's only about you (now).

Refrain:
I remember when I touched your hair,
I was brought back to life,
You were my little Enchanter,
What a pretty example of a source of Light.

Jouer en arpege l'intro pour le pont et ensuite idem pour le couplet 3,

3. Once more I've made a mistake,
I should have never told you this,
My words should have never left my interior glade,
I'm so sorry, I wish I could disappear.

Refrain 2X
I remember when I touched your hair,
I was brought back to life,
You were my little Enchanter,
What a pretty example of a source of Light.

( Copyright Julie Mouton et Charlotte Maquet )

Vous trouverez la tab en lien ici aussi, si vous trouvez la mise en page sur youtube "inadéquate" :D.
La tab donc : http://www.abc-tabs.com/tablature/monday-morning/l[…]light.html
Pour la rythmique, voila ce que ca donne :

Couplet

G : B B HH HBHBH
C : B B HH HBHBH
Em : B B HH HBHBH
D : B B HH HBHBH



Refrain
G : BB HH HBHBH
D : BB HH HBHBH
Em : BB HH HBHBH
C : B B
D : HH HBHBH

@++

Facebook : http://www.facebook.com/pages/Guitare-Acoustique/2[…]7406105437

Donations

Vous appreciez mon travail et voulez me soutenir ?
Vous pouvez me soutenir en faisant un don ;)



Laisser un commentaire