Tous les tutos

Anais Delva - Libérée, délivrée

Posté le 4 novembre 2014 | Variété Française | 33 942 vues
Anais Delva

Libérée, Délivrée ( La reine des neiges ) - Disney

Titre original : Let it go

Capo 1ère case

Accords :
---------

Em: 022000  C: x32010  D: xx0232   Asus4: x02230  Am: x02210
A: x02220  Bm: x24432  Bb: x13331

Intro :
-------

e|-2h3---2--3-----|-2h3---3--2------|-0h2---0--2------|----------------|
B|-----0-------0--|-----0--------0--|-----3--------3--|-3-------1------|
G|------------0---|------------0----|------------2----|----------------|
D|-2--------------|-----------------|-0---------------|----------------|
A|----------------|-3---------------|-----------------|-0--------------|
E|----------------|-----------------|-----------------|----------------|

e|-2h3---2--3-----|-3p2---3--2------|-0h2---0--2------|----------------|
B|-----0-------0--|-----0--------0--|-----3--------3--|-3--------2-----|
G|------------0---|------------0----|------------2----|----------------|
D|-2--------------|-----------------|-0---------------|----------------|
A|----------------|-3---------------|-----------------|-0--------------|
E|----------------|-----------------|-----------------|----------------|

Couplet 1 :
-----------

|-------------------------------------------------|
|Rythmique : B B BH*
|                                                 
|Sur la séquence Asus4-Am et Asus4-A :
|Faire 1 coup vers le bas sur chaque accord.
|
|Sur le dernier A faire :
|B HHB HHB BH*
|--------------------------------------------------|

Em                      C
L'hiver s'installe doucement dans la nuit
           D            Asus4  Am
La neige est reine à son tour
   Em           C
Un royaume de solitude
         D             Asus4 A
Ma place est là pour toujours
Em          C               D             Asus4 Am
Le vent qui hurle en moi ne pense plus à demain
Em               D                   A
Il est bien trop fort j'ai lutté, en vain


Pré-refrain 1 :
---------------

|-----------------------------|
|Rythmique : B B HHHB BH*     |
|-----------------------------|

D                              C
Cache tes pouvoirs, n'en parle pas
                               D
Fais attention, le secret survivra
                              C
Pas d'états d'âme, pas de tourments
C
De sentiments



Refrain 1 :
-----------

|-------------------------------------------------|
|Rythmique :  B B BH*
|                                                 
|A partir de "J'ai laissé" faire,
|sur la séquence G - D - Em - C - Bm - Bb : 
|
|G: B HB(stopper le son)  | D: B HHB BH*
|Em: B HB(stopper le son) | C: B HHB BH*
|Bm: B HB(stopper le son) | Bb: B HHB BH*
|
|-------------------------------------------------|
     G         D
Libérée, délivrée
       Em              C
Je ne mentirai plus jamais
     G         D
Libérée, délivrée
         Em            C
C'est décidé, je m'en vais
G         D             Em   C
J'ai laissé mon enfance en été
        Bm       Bb
Perdue dans l'hiver
C( 1 X Bas )
le froid est pour moi le prix de la liberté

Interlude 1 : Faire 4 coups vers le B par accords
-------------

e|-------------|
B|---1---1p0---|
G|-0---0-------|
D|-------------|
A|-------------|
E|-------------|

G   D (mini pont avec les violons)

Couplet 2 :
-----------

|-------------------------------|
|Rythmique :  B B BH*
|-------------------------------|

Em                    C
Quand on prend de la hauteur
      D            Am
Tout semble insignifiant
       Em                   D
La tristesse, l'angoisse et la peur
          A ( 1 X Bas )
M'ont quittée depuis longtemps

Prérefrain 2 : ( B B HHHB BH* )
--------------

D                           C
Je veux voir ce que je peux faire
C                           D
De cette magie pleine de mystères
D                            C
Le bien, le mal, je dis tant pis
C(1 coup vers le B)
Tant pis

Refrain 2 :
-----------

    G          D
Libérée, délivrée
     Em                     C
Les étoiles me tendent les bras
     G         D
Libérée, délivrée
     Em           C
Non, je ne pleure pas
G     D
Me voilà, oui
Em      C
Je suis là 
        Bm       Bb
Perdue dans l'hiver


**Interlude instrumental
------------------------

Pont : 
------

|-----------------------------------------------------|
|Rythmique : B BH HBH
|
|Sur la séquence Em et C faire 1 coup vers le Bas
|
|Sur la séquence D et Am faire 4 coups vers le bas
|pour le D et 8 coups vers le bas pour le Am
|-----------------------------------------------------|
C(X4)
Mon pouvoir vient du ciel et envahit l'espace
C(X4)
Mon âme s'exprime en dessinant et sculptant dans la glace
D (X4)
Et mes pensées sont des fleurs de cristal gelées
Em        C
Je ne reviendrai pas 
    D           Am
Le passé est passé

Refrain 3 :
-----------

     G        D
Libérée, délivrée,
     Em                    C
Désormais plus rien ne m’arrête
     G         D
Libérée, délivrée
      Em            C
Plus de princesse parfaite
G       D
Je suis là
          Em   C (2 mesures )
Comme je l'ai rêvé
        Bm       Bb ( 2 mesures )
Perdue dans l'hiver
   C
Le froid est pour moi le prix de la liberté

Donations

Vous appreciez mon travail et voulez me soutenir ?
Vous pouvez me soutenir en faisant un don ;)



Laisser un commentaire