Tous les tutos

Passenger - Let her go

Posté le 13 juillet 2013 | Folk | 21 938 vues
Let her go - Passenger 

Capo 7

Intro

e||-----0-------------------------0----------------0-----------
B||---3---3--1--------1-----------1----------1--3-----3--1-----
G||*-------------0h2--------2-----------2p0--------------------
D||*------------------3--------3-------------------------------
A||------------------------------------------------------------
E||--------------1-------1------------1---------3--------------


e|----------------0------------------0-----------------------
B|-------1--------1-----3--------3------3--1-----------------
G|--0h2-------2---------0-----0------------------------------
D|-------2--------2--------0---------------------------------
A|--0-------0------------------------------------------------
E|----------------------3--------3---------------------------


e|-----------------------3p0-----------------0---------------
B|-------1-----------1------------1--1h3---------------------
G|--0h2--------2---------------2-----------------------------
D|-------3--------3-----------------------0------------------
A|-----------------------------------------------------------
E|--1-------1------------1-----------3-----------------------
                       _
                      |1
e|--------------------|---------------------------------------||
B|------1-----------1-|-----------1---------------------------||
G|------------0-------|-----0--------------------------------*||
D|------2--------2----|--------0-----------------------------*||
A|--0------0----------|--0------------------------------------||
E|--------------------|---------------------------------------||

La deuxième fois finir avec ça : 
( C'est à dire qu'on remplace 1* par 2* )
 _
|2
e|--------------------------------
B|-------------1-----------0------
G|------0-------------0-----------
D|----------2------------0--------
A|---0----------------------------
E|-----------------3--------------



Refrain 1

      F                   C
e||----------------------------------------------
B||-----1-----------1---------1-------------1----
G||*----------2-----------------------0----------
D||*----3--------3------------0h2--------2-------
A||------------------------3-------3-------------
E||---1-----1------------------------------------

      G                    Am
e|--------------------------------------------------
B|-------0-----------0---------0h1-----------1------
G|-------------0-----------------------2------------
D|-------0--------0------------2----------2---------
A|--------------------------0-------0---------------
E|----3-----3---------------------------------------

     F                   C
e----------------------------------------------
B-----1-----------1---------1-------------1----
G-----------2-----------------------0----------
D-----3--------3------------0h2--------2-------
A------------------------3-------3-------------
E---1-----1------------------------------------

      G                     G
e|-------------------------------------------------||
B|-------0-----------0----------0------------0-----||
G|-------------0-----------------------0----------*||
D|-------0--------0-------------0---------0-------*||
A|-------------------------------------------------||
E|----3-----3---------------3-------3--------------||


Indications :

Partie instrumental ( en rythmique )

Am   F   G   Em
Am   F   G (x2) ( avec variation 320013 )

Couplet  ( A faire 2 fois ):

Am - F - G - Em
Am - F - G (x2) ( avec variation 320013 ) 

Refrain  ( partie rythmique ) :

A faire 2 fois 

F - C - G - Am
F - C - G (x2) ( avec variation 320013 )

Pour la rythmique "globale" :

B BHBHBH

Ensuite pour ce qui est de la variation G/G11(320013)
Je fais ceci :

HBB BH ( H HB ) HBH

La partie entre parenthèse est joué quand on
place l'index en case 1 de la corde de Si.

-------------------------------------------------
Refrain 1 :

                       F                       C
Well you only need the light when it s burning low
              G                       Am
Only miss the sun when it s starts to snow
               F                      C       G(x2)
Only know your lover when you let her go
                      F                        C
Only know you ve been high when you re feeling low
              G                        Am
Only hate the road when you re missin  home
               F                         C
Only know your lover when you ve let her go
G(x2)
  And you let her go


Partie instrumentale

Am   F   G   Em
Am   F   G (x2)


Couplet 1

Am                            F
Staring at the bottom of your glass
        G                            Em
Hoping one day you will make a dream last
               Am               F          G(x2)
The dreams come slow and goes so fast
    Am                          F
You see her when you close your eyes
      G                           Em
Maybe one day you will understand why
               Am           F         G(x2)
Everything you touch all it dies


Refrain 2

                          F                       C
Because you only need the light when it s burning low
              G                       Am
Only miss the sun when it s starts to snow
               F                      C       G(x2)
Only know your lover when you let her go
                      F                        C
Only know you ve been high when you re feeling low
              G                        Am
Only hate the road when you re missin  home
               F                         C     G(x2)
Only know your lover when you ve let her go


Couplet 2 :

Am                            F
Staring at the ceiling in the dark
         G                     Em
Same old empty feeling in your heart
           Am                 F       G(x2)
Love comes slow and it goes so fast
         Am                      F
Well you see her when you fall asleep
                G                  Em
But to never to touch and never to keep
                         Am
Because you loved her to much
                 F          G(x2)
And you dive too deep

Refrain 3

                          F                       C
Because you only need the light when it s burning low
              G                       Am
Only miss the sun when it s starts to snow
               F                      C       G(x2)
Only know your lover when you let her go
                      F                        C
Only know you’ve been high when you re feeling low
              G                        Am
Only hate the road when you re missin  home
               F                         C     G(x2)
Only know your lover when you ve let her go


Pont

                Am
And you let her go
      F     G(x2)
Ooooo ooooo oooooo
                Am
And you let her go
        F     G(x2)
Ooooooo ooooo ooooo
                Am         F    G   Em
And you let her go

Am    F    G(x2)


Refrain 4

                          F                       C
Because you only need the light when it s burning low
              G                       Am
Only miss the sun when it s starts to snow
               F                      C       G(x2)
Only know your lover when you let her go
                      F                        C
Only know you ve been high when you re feeling low
              G                        Am
Only hate the road when you re missin  home
               F                         C
Only know your lover when you ve let her go
G(x2)
  And you let her go

Refrain 5

                          F                       C
Because you only need the light when it s burning low
              G                       Am
Only miss the sun when it s starts to snow
               F                      C       G(x2)
Only know your lover when you let her go
                      F                        C
Only know you’ve been high when you re feeling low
              G                        Am
Only hate the road when you re missin  home
               F                         C
Only know your lover when you ve let her go
G                             Am
  And you let her go

Donations

Vous appreciez mon travail et voulez me soutenir ?
Vous pouvez me soutenir en faisant un don ;)



Laisser un commentaire