Tous les tutos

Da Silva - Les Plus Belles Lettres

Posté le 10 janvier 2009 | Variété Française | 1 937 vues
Da silva - Les plus belles lettres 

J'ai fait une vidéo en plus de la tablature pour 
ceux que ca interesse. Mon pseudo sur youtube
c'est ipsaous.

Bye

e------------------------------
B-------------3---------------3
G------3---------------3-------
D------------------------------
A--------------------------------|
E---3-----3--------3-------3---  |
                                 |
				 | X2						
e------------------------------  |
B-------------3---------------3--|
G------2---------------2-------
D------------------------------
A------------------------------
E---3-----3--------3-------3---


e------------------------------
B-------------8---------------8
G------7---------------7-------
D------------------------------   X2
A---6-----6-------6--------6---
E------------------------------


e-----------------------------------------------
B-------------8---------------8---------------10
G-------8---------------7h8------------8--------
D-----------------------------------------------
A-----------------------------------------------
E---8-----8--------8--------------8--------8----

Ensuite pour le refrain : Gm - Bb - Cm 

Pour la rythmique j'fais un truc du genre
mais c'est a vous de voir : BHBH HBH HBH HBH 

Sinon on peut également le jouer en arpège : 
Voici une possibilité :

e------------------------------X
B-------------X-----------------
G------X---------------X--------
D------------------------------
A------------------------------
E---X-----X--------X-------X---

Donations

Vous appreciez mon travail et voulez me soutenir ?
Vous pouvez me soutenir en faisant un don ;)



Laisser un commentaire