Tous les tutos

Gauvain Sers - L’épaule d’un copain

Posté le 8 novembre 2019 | Variété Française | 334 vues
L'épaule d'un copain - Gauvain Sers

Capo 4

Tempo ~ 72bpm

Intro : |Am  |Dm  |E  |Am  |  x3

e|-8-7-------------------------------------0-1---0--4-7-7/10--8-7-8--|
B|-----5---8-6-------5-3-1-0-1-----0-1---3---------------------------|
G|-------------4---4-------------2-----------------------------------|
D|-------------------------------------------------------------------|
A|-------------------------------------------------------------------|
E|-------------------------------------------------------------------|

e|---5-7-8-------5-7-8---4-5-7-----4-5-------------------------------|
B|-5---------5-6---------5-----5-7-----------------------------------|
G|-------------------------------------------------------------------|
D|-------------------------------------------------------------------|
A|-------------------------------------------------------------------|
E|-------------------------------------------------------------------|

Couplet 1
---------
Am                          Dm
Mieux qu'une boite de cachetons
      E          Am
Qu'un anti-dépresseur
Am                       Dm
Mieux qu'une blague à la con
    E                 Am
Qui fait rire que l'auteur
Am                           Dm
Mieux qu'un de ces vieux Bourbon
      G                Am
Qu'on sirote tranquillement
Am                     Dm
Mieux qu'un billet d'avion,
       E                    Am
Qu'on prends pour fout' le camp

Refrain
-------
E                    Am
Mieux qu'tout ça réuni
          G          C
Quand la vie vas pas bien
          F           C
Quand y'a rien qui sourit
Dm                    E
 Y'a l'épaule d'un copain

Couplet 2
---------
Am                        Dm
Mieux qu'entendre sur les ondes
   E            Am
Sa chanson préférée
Am                      Dm
Mieux qu'une colère profonde
    E                Am
Des assiettes fracassées
Am                           Dm
Mieux que n'importe quelle psy
G                    Am
Mieux qu'un punching-ball
Am                     Dm
Mieux qu'une pizza aussi
          E            Am
D'vant un match de football

Refrain
-------
E                    Am
Mieux qu'tout ça réuni
          G          C
Quand la vie vas pas bien
          F           C
Quand y'a rien qui sourit
Dm                    E
 Y'a l'épaule d'un copain

Interlude ( Faire pareil que l'intro )
---------
|Am  |Dm  |E  |Am  |  x3

Couplet 3
---------
Am                      Dm
Mieux qu'un très bon Calva
       E                  Am
Qu'une bouteille de grand cru
      Am                 Dm
Qui t'font croire que ça va
         E         Am
Mais demain, ça va plus
Am                         Dm
Mieux qu'une clope à la f'nêtre
      G             Am
Qu'un carré d'chocolat
Am                          Dm
Mieux que les phrases toute faites
         E            Am
C'est la vie, ça pass'ra

Refrain
-------
E                    Am
Mieux qu'tout ça réuni
          G          C
Quand la vie vas pas bien
          F           C
Quand y'a rien qui sourit
Dm                    E
 Y'a l'épaule d'un copain

Couplet 4
---------
Am               Dm
Mieux que la solitude
       E                    Am
Qu'une partie d'jambes en l'air
Am                       Dm
Mieux que toutes leurs études
       E            Am
Qu'les appels de ta mère
Am                       Dm
Mieux qu'chialer un bon coup
G                          Am
Mieux qu'tout garder pour soi
Am               Dm
Mieux qu'un marabout
    E              Am
Qui va t'couter un bras

Refrain
-------
E                    Am
Mieux qu'tout ça réuni
          G          C
Quand la vie vas pas bien
          F           C
Quand y'a rien qui sourit
Dm      E            Am
 Y'a l'épaule d'un copain

Outro
-----
|Am  |Dm  |E  |Am  |  x2

Donations

Vous appreciez mon travail et voulez me soutenir ?
Vous pouvez me soutenir en faisant un don ;)



Laisser un commentaire