Tous les tutos

Francis Cabrel - L’Encre De Tes Yeux

Posté le 31 mai 2019 | Variété Française | 6 055 vues
L'encre de tes yeux - Francis Cabrel

Tablature relative au capo

Capo 4

Arpège de base
--------------
   
e|--x----------x-----|
B|------x------------|
G|----x----------x---|
D|-------------------|
A|-(x)----(x)--------|
E|-(x)----(x)--------|

Sur le Am c'est un peu différent :

e|-0---------0---------------------------|
B|-----1-------------0h1----------1------|
G|---2---------2-------------2-----------|
D|------------------------2---------(0)--|
A|-0------0----------0----------0--------|
E|---------------------------------------|

Riff fin
--------
x32013 - x32011 - x32010 - x3301x

Mélodie Intro

e|-8--7--5--5h7--5-------------5-5-7-8--7-5--------------------------------|
B|--------------------8--8s10-------------------8-8--6-4s5-----------------|
G|----------------------------------------------------------7-7--4s5-7-----|
D|-------------------------------------------------------------------------|
A|-------------------------------------------------------------------------|
E|-------------------------------------------------------------------------|

e|-------------------5-5---------------------------------------------------|
B|--------5-6---8----------------------------------------------------------|
G|-5---7-------------------------------------------------------------------|
D|-------------------------------------------------------------------------|
A|-------------------------------------------------------------------------|
E|-------------------------------------------------------------------------|

Mélodie Pont

e|-8--7--5--5h7--5-------------5-5-7-8--7-5--------------------------------|
B|--------------------8--8s10-------------------8-8--6-4s5-----------------|
G|--------------------------------------------------------------7-7--4s5-7-|
D|-------------------------------------------------------------------------|
A|-------------------------------------------------------------------------|
E|-------------------------------------------------------------------------|

e|-------------------5-5----5----------------------------------------------|
B|--------5-6---8--------------8--6--6-----8---6--5-5----------------------|
G|-5---7-------------------------------------------------7--5--5h7---------|
D|-------------------------------------------------------------------------|
A|-------------------------------------------------------------------------|
E|-------------------------------------------------------------------------|

e|----------------------------5----8---------------------------------------|
B|----5-6--5----------6--8------8------------------------------------------|
G|-7-----------7--5--------------------------------------------------------|
D|-------------------------------------------------------------------------|
A|-------------------------------------------------------------------------|
E|-------------------------------------------------------------------------|
Chanson 
-------

Intro
-----
C  G  Am  Am  F  C  G  G  C  G  Am  Am

Couplet 1
---------
C              G            Am             Am
  Puisqu'on ne vivra jamais tous les deux
      F                 C
Puisqu'on est fou, puisqu'on est seuls
     G                G
Puisqu'ils sont si nombreux
C          G         Am           Am
   Méme la morale parle pour eux
F             F                C
   J'aimerais quand même te dire
        C              G
Tout ce que j'ai pu écrire
           G            F            F   (Riff fin)*
Je l'ai puisé à l'encre de tes yeux.

Couplet 2
---------
C                 G            Am               Am
   Je n'avais pas vu que tu portais des chaînes
  F               C
à trop vouloir te regarder,
     G            G
J'en oubliais les miennes
C               G            Am       Am
   On révait de Venise et de liberté
F             F                C
   J'aimerais quand même te dire
        C              G
Tout ce que j'ai pu écrire
             G           F          F  (Riff fin)*
C'est ton sourire qui me l'a dicté.

Solo
----

C  G  Am  Am  F  C  G  G
C  G  Am  Am  F  F C C
G   G     F     F     (Riff fin)*

Couplet 3
---------
C              G                 Am             Am
   Tu viendras longtemps marcher dans mes rêves
   F                 C
Tu viendras toujours du côté
   G            G
Où le soleil se lève
C               G              Am        Am
   Et si malgré ça j'arrive à t'oublier
F             F                C
   J'aimerais quand même te dire
        C              G
Tout ce que j'ai pu écrire
         G               F            F  (Riff fin)*
Aura longtemps le parfum des regrets.



Couplet 4
---------
C                   G            Am             Am
  Mais puisqu'on ne vivra jamais tous les deux
      F                 C
Puisqu'on est fou, puisqu'on est seuls
     G                G
Puisqu'ils sont si nombreux
C          G         Am           Am
   Même la morale parle pour eux
F             F                C
   J'aimerais quand même te dire
        C              G
Tout ce que j'ai pu écrire
           G            F            F   (Riff fin)*
Je l'ai puisé à l'encre de tes yeux.

Donations

Vous appreciez mon travail et voulez me soutenir ?
Vous pouvez me soutenir en faisant un don ;)



Laisser un commentaire