Tous les tutos

Renaud - La Ballade Nord-Irlandaise

Posté le 1 novembre 2019 | Variété Française | 746 vues
La Ballade Nord-Irlandaise - Renaud

Capo 5

Rythmique : B BH HBH

Intro
------
            C                  Am          F    C       F     C
e|-0--0--1--3~---1-0----------------------------------------------|
B|-------------------3-1-0-3-3/5~--6-5---3-1------------1---3-1---|
G|--------------------------------------------2-0-----2-----------|
D|----------------------------------------------------------------|
A|----------------------------------------------------------------|
E|----------------------------------------------------------------|

Couplets
--------
               C      F   C                 Am          F    G
J'ai voulu planter un oranger, là où la chanson n'en verra jamais
          C                       Am    F      C     F        C     F C
Là où les arbres n'ont jamais donné que des grenades  dégoupillées

           C     F      C               Am        F   G
Jusqu'à Derry ma bien aimée , sur mon bateau j'ai navigué 
                C              Am         F        C      F   C     F C
J'ai dit aux hommes qui se battaient, je viens planter un oranger 

          C        F      C             Am            F    G
Buvons un verre, allons pêcher, pas une guerre ne pourra durer 
             C           Am       F     C           F        C     F  C
Lorsque la bière et l'amitié   et la musique nous ferons chanter 


Interlude
---------
           C           F    C        Am       F      G
e|------------------------------------------0-1----0----0-----------|
B|---1-3-3/5~---6-5--3-1-------1-1-0-1~---3----------3---3-1-0-1-3--|
G|-0----------------------2-0---------------------------------------|
D|------------------------------------------------------------------|
A|------------------------------------------------------------------|
E|------------------------------------------------------------------|
         C              Am     F   C        F      C       F  C
e|---0-1-3~---1-0-------0-------------------------------------------|
B|-3---------------3-1-------3-1------------1----3-1----------------|
G|-------------------------------2-0----0-2-------------------------|
D|------------------------------------------------------------------|
A|------------------------------------------------------------------|
E|------------------------------------------------------------------|

         C       F      C                 Am            F     G
Tuez vos dieux à tout jamais, sous aucune croix l'amour ne se plaît 
             C               Am      F        C   F         C      F  C
Ce sont les hommes pas les curés qui font pousser   les orangers 

               C      F   C                 Am          F    G
J'ai voulu planter un oranger, là où la chanson n'en verra jamais
         C             Am       F       C          F     C     F  C
Il a fleuri et il a donné  les fruits sucrés de la liberté 

Donations

Vous appreciez mon travail et voulez me soutenir ?
Vous pouvez me soutenir en faisant un don ;)



Laisser un commentaire